top separator

Home

Forum

What's New

Submit a Tab

FAQ

Links

Contact Us

Link to Us

MetalTabs.com logo

Bands

0-9

A

B

C

D

E

F

G

H

I

J

K

L

M

N

O

P

Q

R

S

T

U

V

W

X

Y

Z

Search

What

Where
 

Jungle Rot - "Strangulation Mutilation" Guitar Tab

Plain Text Version
More Jungle Rot Tabs

Hits: 1718
Rated: 4.00 out of 5 (1 vote)
Updated: 2007-01-27 00:16:21

 

By:

megahead

sendpm.gif

email.gif

Important note
This tab is available online because we obtained explicit permission from Jungle Rot or their label.


#----------------------------------PLEASE NOTE---------------------------------#
#This file is the author's own work and represents their interpretation of the #
#song. You may only use this file for private study, scholarship, or research. #
#Unless specified otherwise, this is NOT an official tab from the band members.#
#------------------------------------------------------------------------------#

  Visit MetalTabs.com for more metal tablature
  
Band: JUNGLE ROT
 Album: DEAD AND BURIED
 Song: STRANGULATION MUTILATION

 Copyright (c) Olympic Recordings, 2001
 Version 1.0 -  2007

 Transcribed By: Justin Bilodeau
 Email: jimbob_922@hotmail.com

 Tuning: 3 steps down (B)

 .  - palm mute           /  - slide up to
\  - slide down to       ~  - vibrato
h  - hammer on           b  - Bend
p  - pull off            Suffixes for bend
t  - tap                 f  - full bend    h - half bend
ph - pinched harmonic    q  - quarter bend t - tap bend
*  - see comment         ^  - Hold bend    r release bend
x  - Stuccatto           ~  - vibrato bend
,  - slight palm mute    () - ghost note, sustained note
"  - tremolo note        <> - Trill

RIFF A (intro):
|-----------------------------|
|-----------------------------|
|-----------------------------|
|-------------------------8-8-|
|-5/7-7-5/7-7-5/7-7-5/7-7-6-6-|
|-3/5-5-3/5-5-3/5-5-3/5-5-----|


RIFF B:
|-----------------------------|
|-----------------------------|
|-----------------------------|
|-------------------------888-|
|-5-7-7-5-7-7-5-7-7-5-7-7-666-|
|-3-5-5-3-5-5-3-5-5-3-5-5-----|


RIFF C:
|---------------------|
|---------------------|
|---------------------|
|-----------------8-8-|
|-5-7-5-7-5-7-5-7-6-6-|
|-3-5-3-5-3-5-3-5-----|


RIFF D:
|----------------------------------|
|----------------------------------|
|----------------------------------|
|----------------------------------|
|-------------5--------------------|
|-000-0-00000-3--000-0-00000-3-5-3-|
  *** * *****    *** * *****


RIFF B
RIFF C
RIFF D


RIFF E:
|---------------------------------------------
|---------------------------------------------
|---------------------------------------------
|---------------------------------------------
|-------------------------------------------8-
|-0-0-0-0-2-3-0-0-0-0-2-3-0-0-0-0-2-3-0-0-0-6-

-----------------------------------------------|
-----------------------------------------------|
-----------------------------------------------|
-----------------------------------------------|
-------------------------------------------8-7-|
-0-0-0-0-2-3-0-0-0-0-2-3-0-0-0-0-2-3-0-0-0-6-5-|


RIFF F:
|--------------------------|
|--------------------------|
|--------------------------|
|--------------------------|
|-------------5------------|
|-000-0-00000-3--000-0-000-|

RIFF F gtr 2:
|-------------------------------------------|
|-------------------------------------------|
|-------------------------------------------|
|-7~---6~---4~---3~---7~---6~---4~---3~-----|
|-----------------------------------------2-|
|-----------------------------------------0-|

END w/feedback

  Visit MetalTabs.com for more metal tablature

bottom separator

Contact Us | Privacy Policy | Disclaimer | Legal Notice
Copyright © 2001-2014 MetalTabs.com. All Rights Reserved.