top separator

Home

Forum

What's New

Submit a Tab

FAQ

Links

Contact Us

Link to Us

MetalTabs.com logo

Bands

0-9

A

B

C

D

E

F

G

H

I

J

K

L

M

N

O

P

Q

R

S

T

U

V

W

X

Y

Z

Search

What

Where
 

Fuck... I'm Dead - "Anal Abattoir" Guitar Tab

Plain Text Version
More Fuck... I'm Dead Tabs

Hits: 1923
Updated: 2007-01-14 21:18:14

 

By:

Licky Webster

sendpm.gif

email.gif

Important note
This tab is available online because we obtained explicit permission from Fuck... I'm Dead or their label.


#----------------------------------PLEASE NOTE---------------------------------#
#This file is the author's own work and represents their interpretation of the #
#song. You may only use this file for private study, scholarship, or research. #
#Unless specified otherwise, this is NOT an official tab from the band members.#
#------------------------------------------------------------------------------#

  Visit MetalTabs.com for more metal tablature
  
Fuck... I'm Dead
Fuck... I'm Dead/Engorged Split
Anal Abattoir

Copyright (c)  No Escape Records 2002
Version 1.0 - 1.1.2007

Transcribed By: Yaniv D
Email:          lickywebster@yahoo.com


.  - palm mute           /  - slide up to
\  - slide down to       ~  - vibrato
h  - hammer on           b  - Bend
p  - pull off            Suffixes for bend
t  - tap                 f  - full bend    h - half bend
ph - pinched harmonic    q  - quarter bend t - tap bend
*  - see comment         ^  - Hold bend    r release bend
x  - Stuccatto           ~  - vibrato bend
,  - slight palm mute    () - ghost note, sustained note
"  - tremolo note        <> - Trill

Tuning is C# with drop B


Riff A x3                          Riff B x1
|---------------------------------||-------------------------------------|
|---------------------------------||-------------------------------------|
|---------------------------------||-------------------------------------|
|-----------------5---------------||-55555555-22222222-44444444-77777777-|
|-8\--0-2-0-0-2-2-3---3-5-3-0-5-5-||-33333333-33333333-33333333-33333333-|
|-----0-2-0-0-2-2-----3-5-3-0-----||-------------------------------------|

Riff C x4
|---------------*-------------------|
|---------------*-------------------|
|-----------------------------------|
|-7---7---6---6---------------------|
|-6---6---5---5-------2-2-----------|
|-4---4---3---3---3-5-----5-5-3-0---|


Part D x1 (fast)
|L (Riff D)
|---------------------------------|
|---------------------------------|
|---------------------------------|
|---------------------------------|
|-3-2-1-3-2-1-3-0-3-2-1-3-2-1-3-0-|
|-3-2-1-3-2-1-3-0-3-2-1-3-2-1-3-0-|
| . . . . . . . .
|R
|---------------------------------|
|---------------------------------|
|---------------------------------|
|---------------------------------|
|-----------------3-2-1-3-2-1-3-0-|
|-----------------3-2-1-3-2-1-3-0-|

Riff C x1
Riff D x1
Riff D x1 (PM all chords)

Riff E1 x1                         Riff E2 x4
|---------------------------------||---------------------------------|
|---------------------------------||---------------------------------|
|---------------------------------||---------------------------------|
|---------------------------------||---------------------------------|
|-3---2---1---3---2---1---3---2---||-3---2---1---3---2---1---3---2---|
|-3---2---1---3---2---1---3---2---||-3---2---1---3---2---1---3---2---|
                                     .   .   .       .   .

Riff C x1 (Start from **)

Riff F x2                          Riff G x1
|---------------------------------||-------------------|
|---------------------------------||-------------------|
|---------------------------------||-------------------|
|---------------------------------||-3---2---6---------|
|-5---------------5---------------||-3---2---5---ph----|
|---3-2-0-3-2-1-0---3-2-0-3-2-1-0-||-3---2---3---3fb---|

Riff F x2



Mid section (play each part 1 time)

|Part 1   |Part 2             |Part 3     |Part 2 |Part 4      |
|---------|-------------------|-----------|-------|------------|
|---------|-------------------|-----------|-------|------------|
|---------|-------------------|-----------|-------|------------|
|---------|-----------3-------|-----5-7-5-|-------|------------|
|-310-310-|-311-2-311---311-2-|-311-4-6-4-|-------|----310-310-|
|-310-310-|-311---311---311---|-311-2-4-2-|-------|-31-310-310-|
  ... ...   ...   ...   ...     ...                    ... ...

|Part 2 |Part 3 | Part 2 |Part 5      |
|-------|-------|--------|------------|
|-------|-------|--------|------------|
|-------|-------|--------|------------|
|-------|-------|--------|-----5-7-8--|
|-------|-------|--------|-311-4-6-7--|
|-------|-------|--------|-311-2-4-5--|
                           ...

Part H x2
|
|------------------------------------------------------------------------|
|------------------------------------------------------------------------|
|------------------------------------------------------------------------|
|-3-----------------2---------------6------------------------------------|
|-3-----------------2---------------5-----------------6-5-0-3--4---3-----|
|-3-----------------2---------------3-----------------6-5-0-3--4---3-----|
|
|Played by a 3rd guitar                                                  ||
|------------------------------------------------------------------------||----|
|-T--------T--------T-------T-------T--------T--------T--------T---------||-T--|
|-10p4h6h7-10p4h6h7-9p4h6h7-9p4h6h7-10p4h6h7-10p4h6h7-12p4h6h7-12p4h6h7--||-10-|
|------------------------------------------------------------------------||----|
|------------------------------------------------------------------------||Let-|
|------------------------------------------------------------------------||Ring|

Part I x4
|L
|---------------------------------------------------|
|---------------------------------------------------|
|---------------------------------------------------|
|----------------------------------4----------------|
|----6--5--3-----6--5--3--6--5--6--4--6-5-0-3-4--3--|
|-3-----------2-----------------------6-5-0-3-4--3--|
|
|R
|---------------------------------------------------|
|---------------------------------------------------|
|---------------------------------------------------|
|-3-----------2-----------6-------------------------|
|-3-----------2-----------5-----------6-5-0-3-4--3--|
|-3-----------2-----------3-----------6-5-0-3-4--3--|



Part J x2
|L
|---------------------------------------------------|
|---------------------------------------------------|
|---------------------------------------------------|
|----------------------------------7----------------|
|----9--8--6-----9--8--6--9--8--9--7--6-5-0-3-4--3--|
|-3-----------2-----------------------6-5-0-3-4--3--|
|
|R
|---------------------------------------------------|
|---------------------------------------------------|
|---------------------------------------------------|
|----------------------------------4----------------|
|----6--5--3-----6--5--3--6--5--6--4--6-5-0-3-4--3--|
|-3-----------2-----------------------6-5-0-3-4--3--|


Riff G x1

3rd Guitar plays
|-------------------------------|
|-------------------------------|
|-ph----------------------------|
|-10-and play with whammy bar---|
|-------------------------------|
|-------------------------------|

Riff F x2
Riff A x3
RIff B x1
Riff F x1

End with
|-----------------|
|-----------------|
|-----------------|
|-----------------|
|-5-----------1---|
|---3-2-0-3-2-1---|


END

  Visit MetalTabs.com for more metal tablature

bottom separator

Contact Us | Privacy Policy | Disclaimer | Legal Notice
Copyright © 2001-2014 MetalTabs.com. All Rights Reserved.