top separator

Home

Forum

What's New

Submit a Tab

FAQ

Links

Contact Us

Link to Us

MuSpy.com

MetalTabs.com logo

Bands

0-9

A

B

C

D

E

F

G

H

I

J

K

L

M

N

O

P

Q

R

S

T

U

V

W

X

Y

Z

Search

What

Where
 

Ildjarn - "Natt Og Take" Guitar Tab

Plain Text Version
More Ildjarn Tabs

Hits: 1537
Rated: 5.00 out of 5 (2 votes)
Updated: 2007-01-14 21:12:57

 

By:

inrwtl

sendpm.gif

email.gif

Important note
We did our best to reach Ildjarn and ask for their permission to publish this tab. Unfortunately they did not respond to our requests or we could not find a way to contact them. This tab is available online until Ildjarn tells us to take it down.


#----------------------------------PLEASE NOTE---------------------------------#
#This file is the author's own work and represents their interpretation of the #
#song. You may only use this file for private study, scholarship, or research. #
#Unless specified otherwise, this is NOT an official tab from the band members.#
#------------------------------------------------------------------------------#

  Visit MetalTabs.com for more metal tablature
  
Band:  ildjarn

Album: norse ep, nocturnal art productions may 1993

Song:  natt og take

Version 1.0

Transcribed By: inrwtl

Email:          inrwtl@alice


 /  - slide up to

Tuning E A D G B E


Riff 1

|-------------------------------------------------------------------|
|-------------------------------------------------------------------|
|-------------------------------------------------------------------|
|-----------------/101010111111-777777/999999-----------------------|
|-888888888888888-/8-8-8-9-9-9--555555/777777-----------------------|
|-666666666666666---------------------------------------------------|

Riff 1 - Fill 1

|-------------------------------------------------------------------|
|-------------------------------------------------------------------|
|-------------------------------------------------------------------|
|----------------------/101010111111-777777/999999------------------|
|-7/88888888-7/8888888-/8-8-8-9-9-9--555555/777777------------------|
|-5/66666666-5/6666666----------------------------------------------|

Riff 2

|-------------------------------------------------------------------|
|-------------------------------------------------------------------|
|-------------------------------------------------------------------|
|-6/7777-6/7777-6/7777-33343----------------------------------------|
|-4/5555-4/5555-4/5555-11111----------------------------------------|
|-------------------------------------------------------------------|

Riff 3

|-------------------------------------------------------------------|
|-------------------------------------------------------------------|
|-------------------------------------------------------------------|
|-666666666666666-555555555555555-666666666666666-555555555555555---|
|-444444444444444-333333333333333-444444444444444-333333333333333---|
|-------------------------------------------------------------------|


Riff 3 - Fill 1

|-------------------------------------------------------------------|
|-------------------------------------------------------------------|
|-------------------------------------------------------------------|
|-666666666666666-555555555555555/7-666666666666666-555555555555555-|
|-444444444444444-333333333333333/5-444444444444444-333333333333333-|
|-------------------------------------------------------------------|

END

  Visit MetalTabs.com for more metal tablature

bottom separator

Contact Us | Privacy Policy | Disclaimer | Legal Notice
Copyright © 2001-2014 MetalTabs.com. All Rights Reserved.