top separator

Home

Forum

What's New

Submit a Tab

FAQ

Links

Contact Us

Link to Us

MuSpy.com

MetalTabs.com logo

Bands

0-9

A

B

C

D

E

F

G

H

I

J

K

L

M

N

O

P

Q

R

S

T

U

V

W

X

Y

Z

Search

What

Where
 

Tierra Santa - "La Cuidad Secreta" Guitar Tab

Plain Text Version
More Tierra Santa Tabs

Hits: 1949
Rated: 5.00 out of 5 (1 vote)
Updated: 2007-01-02 21:27:08

 

By:

naat

sendpm.gif

email.gif

Important note
We did our best to reach Tierra Santa and ask for their permission to publish this tab. Unfortunately they did not respond to our requests or we could not find a way to contact them. This tab is available online until Tierra Santa tells us to take it down.


#----------------------------------PLEASE NOTE---------------------------------#
#This file is the author's own work and represents their interpretation of the #
#song. You may only use this file for private study, scholarship, or research. #
#Unless specified otherwise, this is NOT an official tab from the band members.#
#------------------------------------------------------------------------------#

  Visit MetalTabs.com for more metal tablature
  
--------------------------------------------------------------------------
 Title:    | La Ciudad Secreta
--------------------------------------------------------------------------
 Artist:   | Tierra Santa
 Album:    | Sangre De Reyes
 Author:   | Tierra Santa
 Copyright:| 2001 LOCOMOTIVE MUSIC
 Tab:      | Nestor Arroliga Tellez [naat]
 E-mail:   | maiden_nat@yahoo.com
--------------------------------------------------------------------------

[Intro]:

Guitar 1:                                          |1.    |2.
e|-8h10-10-8-8~-|------------|-8h10-10-8-8~-|------|------|-10~--|
B|--------------|-8-8-10-10~-|--------------|-6~---|------|------|
G|--------------|------------|--------------|------|-7~---|------|
D|--------------|------------|--------------|------|------|------|
A|--------------|------------|--------------|------|------|------|
E|--------------|------------|--------------|------|------|------|

Guitar 2:                                          |1.    |2.
e|--------------|------------|--------------|------|------|------|
B|---10-10-8-8~-|------------|---10-10-8-8~-|------|------|------|
G|--------------|-7-7-9-9~---|--------------|-5~---|------|-7~---|
D|--------------|------------|--------------|------|-7~---|------|
A|--------------|------------|--------------|------|------|------|
E|--------------|------------|--------------|------|------|------|

Guitar 3:                                          |1.    |2.
e|--------------|------------|--------------|------|------|------|
B|--------------|------------|--------------|------|------|------|
G|-2------------|------------|-2------------|------|-7----|-7----|
D|-2------------|------------|-2------------|-3----|-7----|-7----|
A|-0------------|--------3-5-|-0------------|-3----|-5----|-5----|
E|--------------|--------1-3-|--------------|-1----|------|------|


[Riff A]: 2x

Both Guitars:
e|-----------------|-----------------|-----------------|-----------------|
B|-----------------|-----------------|-----------------|-----------------|
G|-----------------|-----------------|-----------------|-----------------|
D|-2-------2-----2-|-----2---5p4-----|-2-------2-----2-|-----2---5p4-----|
A|-0-0-0-0-0-0-0-0-|-0-0-0-0-----5-7-|-0-0-0-0-0-0-0-0-|-0-0-0-0-----5-7-|
E|-----------------|-----------------|-----------------|-----------------|

Both Guitars:
e|-----------------|-----------------|-----------------|-----------------|
B|-----------------|-----------------|-----------------|-----------------|
G|-----------------|-----------------|-----------------|-----------------|
D|-2-------2-----2-|-----2---5p4-----|-2-------2-----2-|-----------------|
A|-0-0-0-0-0-0-0-0-|-0-0-0-0-----5-7-|-0-0-0-0-0-0-0-0-|-----0-2-3p2-0---|
E|-----------------|-----------------|-----------------|---3-----------3-|


[Verse Riff 1]:

Both Guitars:
e|-----------------|-----------------|-----------------|-----------------|
B|-----------------|-----------------|-----------------|-----------------|
G|-2---------------|-(2)-------------|-(2)-------------|-----------------|
D|-2---------------|-(2)-------------|-(2)-------------|-----------------|
A|-0---------------|-(0)-------------|-(0)-------------|-----0-2-3p2-0---|
E|-----------------|-----------------|-----------------|---3-----------3-|


[Verse Riff 2]: 2x

Both Guitars:
e|-----------------|-----------------|-----------------|-----------------|
B|-----------------|-----------------|-----------------|-----------------|
G|-----------------|-----------------|-----------------|-----------------|
D|-2-----2-----2---|-2-----2-----2---|-2-----2-----2---|-2---------------|
A|-0-0-0-0-0-0-0-0-|-0-0-0-0-0-0-0-0-|-0-0-0-0-0-0-0-0-|-0---0-2-3p2-0---|
E|-----------------|-----------------|-----------------|---3-----------3-|


[Verse Riff 3]:

Both Guitars:  |                                   2x|
e|------|------|-----------------|-------------------|------|------|
B|------|------|-----------------|-------------------|------|------|
G|------|------|-----5---4-5-----|-5-----4-5---------|------|------|
D|------|------|-----3---2-3-----|-3-----2-3---------|------|------|
A|-3----|-5----|-0-0---0-----0-0-|---0-0-----0-0-0-0-|-3----|-5----|
E|-1----|-3----|-----------------|-------------------|-1----|-3----|


[Fill]:

Guitar 1:
e|-----------------|-----------------|-----------------|-----------------|
B|-----------------|-----------------|-----------------|-----------------|
G|-----------------|-----------------|-----------------|-----------------|
D|-2-----2-----2---|-2-----2-----2---|-2-----2-----2---|-2---------------|
A|-0-0-0-0-0-0-0-0-|-0-0-0-0-0-0-0-0-|-0-0-0-0-0-0-0-0-|-0---0-2-3p2-0---|
E|-----------------|-----------------|-----------------|---3-----------3-|

Guitar 2:                                         A.H.  A.H.
e|-----15------------|------|--------------------------------|-----------|
B|-15b---15~---15p13-|-15~--|-13h15-13-12--------------------|-----------|
G|-------------------|------|------------14-12-14-<14>-<14b>-|-14p12-14~-|
D|-------------------|------|--------------------------------|-----------|
A|-------------------|------|--------------------------------|-----------|
E|-------------------|------|--------------------------------|-----------|


[Verse Riff 2] 4x


[Verse Riff 4]:

Both Guitars:
e|------|------|----------|------|------|------|
B|------|------|----------|------|------|------|
G|------|------|----------|------|------|------|
D|------|------|-5--4-----|------|------|------|
A|-3----|-5----|-3--2--5--|-3----|-5----|-2----|
E|-1----|-3----|-------3--|-1----|-3----|-0----|


[Chorus]:

Both Guitars:
e|-----------------|-----------------|-----------------|-----------------|
B|-----------------|-----------------|-----------------|-----------------|
G|-----------------|-----------------|-----------------|-----------------|
D|-2-----2-----2---|-2-----2-----2---|-----------------|-----------------|
A|-0-0-0-0-0-0-0-0-|-0-0-0-0-0-0-0-0-|-5-----5-----5---|-5-----5-----5---|
E|-----------------|-----------------|-3-3-3-3-3-3-3-3-|-3-3-3-3-3-3-3-3-|

Both Guitars:
e|-----------------|-----------------|-----------------|-----------------|
B|-----------------|-----------------|-----------------|-----------------|
G|-----------------|-----------------|-----------------|-----------------|
D|-7-----7-----7---|-7-----7-----7---|-----------------|-----------------|
A|-5-5-5-5-5-5-5-5-|-5-5-5-5-5-5-5-5-|-3-----3---------|-5-----5---------|
E|-----------------|-----------------|-1-1-1-1---------|-3-3-3-3---------|

Both Guitars:
e|-----------------|-----------------|-----------------|-----------------|
B|-----------------|-----------------|-----------------|-----------------|
G|-----------------|-----------------|-----------------|-----------------|
D|-2-----2-----2---|-2-----2-----2---|-----------------|-----------------|
A|-0-0-0-0-0-0-0-0-|-0-0-0-0-0-0-0-0-|-5-----5-----5---|-5-----5-----5---|
E|-----------------|-----------------|-3-3-3-3-3-3-3-3-|-3-3-3-3-3-3-3-3-|

Both Guitars:
e|------|------|------|
B|------|------|------|
G|------|------|------|
D|------|------|------|
A|-3----|-5----|-2----|
E|-1----|-3----|-0----|


[Break]:

Guitar 1:
e|-------------------|----------|-------------------|----------------|
B|-------------------|----------|-------------------|----------------|
G|-------------------|----------|-------------------|-4---4-2---2----|
D|-2-----5---4-----2-|-5-----7--|-2-----5---4-----2-|-2-2-2-0-0-0-5--|
A|-0-0-0-3-0-2-0-0-0-|-3-0-0-5--|-0-0-0-3-0-2-0-0-0-|-------------3--|
E|-------------------|----------|-------------------|----------------|

Guitar 2:
e|-------------------|----------|-------------------|----------------|
B|-------------------|----------|-------------------|----------------|
G|-------------------|----------|-------------------|-4---4-2---2----|
D|-2-----------------|-5---x-7--|-2-----------------|-2-2-2-0-0-0-5--|
A|-0-----------------|-3---x-5--|-0-----------------|-------------3--|
E|-------------------|----------|-------------------|----------------|

Guitar 1:
e|-------------------|----------|------|------|
B|-------------------|----------|------|------|
G|-------------------|----------|-5----|-7----|
D|-2-----5---4-----2-|-5-----7--|-3----|-5----|
A|-0-0-0-3-0-2-0-0-0-|-3-0-0-5--|------|------|
E|-------------------|----------|------|------|

Guitar 2:
e|-------------------|----------|------|------|
B|-------------------|----------|------|------|
G|-------------------|----------|------|------|
D|-2-----------------|-5---x-7--|------|------|
A|-0-----------------|-3---x-5--|-3----|-5----|
E|-------------------|----------|-1----|-3----|


[Solo]:

Guitar 1:
e|-------------------|-------------|-------|----------------12-15-|-15b--|
B|----------12-13-15-|-15b---15p13-|-15~---|-15-13-12-13-15-------|------|
G|-12--12-14---------|-------------|-------|----------------------|------|
D|---14--------------|-------------|-------|----------------------|------|
A|-------------------|-------------|-------|----------------------|------|
E|-------------------|-------------|-------|----------------------|------|

Guitar 1:                                                        A.H.
e|-15-13-12--12---------|----------------------------------|--------------
B|---------15--15-13-12-|-13p12h13-12----------------------|--------------
G|----------------------|------------14p12h14p12--14h12p12-|-14b-<14>~----
D|----------------------|-----------------------14---------|-----------10-
A|----------------------|----------------------------------|--------------
E|----------------------|----------------------------------|--------------

Guitar 1:
        A.H.  A.H.
e|---|--------------|--------------12-13-15-|-15br--|-15p13p12-13p12--12--
B|---|--------------|---13-12-13-15---------|-------|---------------15----
G|-7-|-<10>~--<7>~--|-14--------------------|-------|---------------------
D|---|--------------|-----------------------|-------|---------------------
A|---|--------------|-----------------------|-------|---------------------
E|---|--------------|-----------------------|-------|---------------------

Guitar 1:
e|----------------|------|---------------------|------|------|------|-----
B|-15p13-15p12h13-|------|--------13--12-13-15-|-15b--|-15~--|------|-15b-
G|----------------|-14~--|---12-14--14---------|------|------|-14---|-----
D|----------------|------|-14------------------|------|------|------|-----
A|----------------|------|---------------------|------|------|------|-----
E|----------------|------|---------------------|------|------|------|-----

Guitar 1:
e|-------|-15br-|-15-13-12-----------|------|------|----------|----------|
B|-15-13-|------|---------15-13-12---|------|------|-/12--/13-|-/15--/17-|
G|-------|------|-----------------14-|------|-/12~-|----------|----------|
D|-------|------|--------------------|-15~--|------|----------|----------|
A|-------|------|--------------------|------|------|----------|----------|
E|-------|------|--------------------|------|------|----------|----------|


[Rhythm Under Solo]:

Guitar 2:
e|-----------------|-----------------|-----------------|-----------------|
B|-----------------|-----------------|-----------------|-----------------|
G|-----------------|-----------------|-----------------|-----------------|
D|-2-----2-----2---|-2-----2-----2---|-----------------|-----------------|
A|-0-0-0-0-0-0-0-0-|-0-0-0-0-0-0-0-0-|-5-----5-----5---|-5-----5-----5---|
E|-----------------|-----------------|-3-3-3-3-3-3-3-3-|-3-3-3-3-3-3-3-3-|

Guitar 2:
e|-----------------|-----------------|-----------------|-----------------|
B|-----------------|-----------------|-----------------|-----------------|
G|-----------------|-----------------|-----------------|-----------------|
D|-7-----7-----7---|-7-----7-----7---|-----------------|-----------------|
A|-5-5-5-5-5-5-5-5-|-5-5-5-5-5-5-5-5-|-3-----3---------|-5-----5---------|
E|-----------------|-----------------|-1-1-1-1---------|-3-3-3-3---------|

Guitar 2:
e|-----------------|-----------------|-----------------|-----------------|
B|-----------------|-----------------|-----------------|-----------------|
G|-----------------|-----------------|-----------------|-----------------|
D|-2-----2-----2---|-2-----2-----2---|-----------------|-----------------|
A|-0-0-0-0-0-0-0-0-|-0-0-0-0-0-0-0-0-|-5-----5-----5---|-5-----5-----5---|
E|-----------------|-----------------|-3-3-3-3-3-3-3-3-|-3-3-3-3-3-3-3-3-|

Guitar 2:
e|-----------------|-----------------|-----------------|-----------------|
B|-----------------|-----------------|-----------------|-----------------|
G|-----------------|-----------------|-----------------|-----------------|
D|-----------------|-----------------|-----------------|-----------------|
A|-3-----3-----3---|-3-----3-----3---|-5-----5-----5---|-5-----5-----5---|
E|-1-1-1-1-1-1-1-1-|-1-1-1-1-1-1-1-1-|-3-3-3-3-3-3-3-3-|-3-3-3-3-3-3-3-3-|

Guitar 2:
e|-----|-----|-----------------|-----------------|-----|-----|-----|
B|-----|-----|-----------------|-----------------|-----|-----|-----|
G|-----|-----|-----------------|-----------------|-----|-----|-----|
D|-----|-----|-2-----2-----2---|-2-----2-----2---|-----|-----|-----|
A|-3---|-5---|-0-0-0-0-0-0-0-0-|-0-0-0-0-0-0-0-0-|-3---|-5---|-2---|
E|-1---|-3---|-----------------|-----------------|-1---|-3---|-0---|


[Chorus]


[Outro]:

Guitar 1:
e|---------------|----------|---------------|----------|
B|---------------|----------|---------------|----------|
G|-5p4-----------|----------|-5p4-----------|----------|
D|-----7-5---5-7-|--5---5-7-|-----7-5---5-7-|--5---5-7-|
A|---------7-----|----7-----|---------7-----|----7-----|
E|---------------|----------|---------------|----------|

Guitar 2:
e|---------------|----------|---------------|----------|
B|---------------|----------|---------------|----------|
G|---------------|----------|---------------|----------|
D|-------------2-|-(2)------|---------------|----------|
A|-------------0-|-(0)------|-------------5-|-(5)------|
E|---------------|----------|-------------3-|-(3)------|

Guitar 1:
e|---------------|----------|---------------|---------------|
B|---------------|----------|---------------|---------------|
G|-5p4-----------|----------|-5p4-----------|-5p4-----------|
D|-----7-5---5-7-|--5---5-7-|-----7-5---5-7-|-----7-5---5-7-|
A|---------7-----|----7-----|---------7-----|---------7-----|
E|---------------|----------|---------------|---------------|

Guitar 2:
e|---------------|----------|---------------|---------------|
B|---------------|----------|---------------|---------------|
G|---------------|----------|---------------|---------------|
D|-------------7-|-(7)------|---------------|---------------|
A|-------------5-|-(5)------|-------------3-|-(3)---------5-|
E|---------------|----------|-------------1-|-(1)---------3-|

Guitar 1:
e|---------------|----------|---------------|----------|
B|---------------|----------|---------------|----------|
G|-5p4-----------|----------|-5p4-----------|----------|
D|-----7-5---5-7-|--5---5-7-|-----7-5---5-7-|--5---5-7-|
A|---------7-----|----7-----|---------7-----|----7-----|
E|---------------|----------|---------------|----------|

Guitar 2:
e|---------------|----------|---------------|----------|
B|---------------|----------|---------------|----------|
G|---------------|----------|---------------|----------|
D|-------------2-|-(2)------|---------------|----------|
A|-------------0-|-(0)------|-------------5-|-(5)------|
E|---------------|----------|-------------3-|-(3)------|

Guitar 3:
e|-8p7------------|-----------|-8p7-------------|-----------|
B|----10-8---8-10-|--8---8-10-|-----10-8---8-10-|--8---8-10-|
G|---------9------|----9------|----------9------|----9------|
D|----------------|-----------|-----------------|-----------|
A|----------------|-----------|-----------------|-----------|
E|----------------|-----------|-----------------|-----------|

Guitar 1:
e|---------------|----------|---------------|---------------|----|
B|---------------|----------|---------------|---------------|----|
G|-5p4-----------|----------|-5p4-----------|-5p4-----------|----|
D|-----7-5---5-7-|--5---5-7-|-----7-5---5-7-|-----7-5---5-7-|-2--|
A|---------7-----|----7-----|---------7-----|---------7-----|-0--|
E|---------------|----------|---------------|---------------|----|

Guitar 2:
e|---------------|----------|---------------|---------------|----|
B|---------------|----------|---------------|---------------|----|
G|---------------|----------|---------------|---------------|----|
D|-------------7-|-(7)------|---------------|---------------|-2--|
A|-------------5-|-(5)------|-------------3-|-(3)---------5-|-0--|
E|---------------|----------|-------------1-|-(1)---------3-|----|

Guitar 3:
e|-8p7------------|-----------|-8p7-------------|-8p7-------------|----|
B|----10-8---8-10-|--8---8-10-|-----10-8---8-10-|-----10-8---8-10-|----|
G|---------9------|----9------|----------9------|----------9------|----|
D|----------------|-----------|-----------------|-----------------|-2--|
A|----------------|-----------|-----------------|-----------------|-0--|
E|----------------|-----------|-----------------|-----------------|----|

----------------------------------------------------------------------
Tablature Explanation
----------------------------------------------------------------------
 h   : hammer on    | b   : bend
 p   : pull off     | br  : bend - release
 /   : slide up     | t   : tapping
 \   : slide down   | tr  : trill
 \/  : dive         | x   : muted note
 ~   : vibrato      | ()  : ghost note
 ~~~ : wide vibrato | <>  : harmonics
 pm..: palm mute    | /// : tremolo picking
----------------------------------------------------------------------

  Visit MetalTabs.com for more metal tablature

bottom separator

Contact Us | Privacy Policy | Disclaimer | Legal Notice
Copyright © 2001-2014 MetalTabs.com. All Rights Reserved.