top separator

Home

Forum

What's New

Submit a Tab

FAQ

Links

Contact Us

Link to Us

MetalTabs.com logo

Bands

0-9

A

B

C

D

E

F

G

H

I

J

K

L

M

N

O

P

Q

R

S

T

U

V

W

X

Y

Z

Search

What

Where
 

Catasexual Urge Motivation - "I'll Confess Everything That I Have Ever Killed 5 People And One Was A Little Girl" Guitar Tab

Plain Text Version
More Catasexual Urge Motivation Tabs

Hits: 1777
Updated: 2007-01-02 21:24:02

 

By:

Cunty Shunt

sendpm.gif

email.gif

Important note
This tab is available online because we obtained explicit permission from Catasexual Urge Motivation or their label.


#----------------------------------PLEASE NOTE---------------------------------#
#This file is the author's own work and represents their interpretation of the #
#song. You may only use this file for private study, scholarship, or research. #
#Unless specified otherwise, this is NOT an official tab from the band members.#
#------------------------------------------------------------------------------#

  Visit MetalTabs.com for more metal tablature
  
Band:  Catasexual Urge Motivation
Album: The Encyclopedia of Serial Murders
Song:  I'll Confess Everything That I Have Ever Killed 5
       People And One Was A Little Girl



Copyright (c)  Deliria Records 1997
Version 1.0 - 12-29-06

Transcribed By: Jim Haras
Email:          jimharas@yahoo.com


.  - palm mute           /  - slide up to
\  - slide down to       ~  - vibrato
h  - hammer on           b  - Bend
p  - pull off            Suffixes for bend
t  - tap                 f  - full bend    h - half bend
ph - pinched harmonic    q  - quarter bend t - tap bend
*  - see comment         ^  - Hold bend    r release bend
x  - Stuccatto           ~  - vibrato bend
,  - slight palm mute    () - ghost note, sustained note
"  - tremolo note        <> - Trill

Tuning B E A D G B

Riff 1       x3            x1
||------------|-------------||
||------------|-------------||
||------------|-------------|| x5
||------------|-------------||  (last two times is
||--22-3/444--|--44---3-----||      only guitar)
||--00-1/222--|--22-x-1-----||

Riff 2        x3               x1
||-------------|---------------||
||-------------|---------------||
||-------------|---------------|| x3
||-------------|---------------||
||--2-2-/8888--|--4--4--5--5---||
||--0-0-/6666--|--2--2--3--3---||

Riff 3                     *=10
||----------|--------|-----------|--------||
||----------|--------|-----------|--------||
||----------|--------|-----------|--------||
||----------|--------|-----------|--------||
||--2-2-/8\-|--2-2---|--2-2-/*\--|--2-2---||
||--0-0-/6\-|--0-0---|--0-0-/8\--|--0-0---||

Riff 4
||-------------------------||
||-------------------------||
||-------------------------|| x8
||-------------------------||
||------1111--000000-------||
||--0000----2--------------||

Riff 3 (x1)
Riff 4 (x8)
Riff 3 (x1)
Riff 1 (x3)

Riff 5
||--------------------------------||
||--------------------------------||
||--------------------------------||
||--------------------------------|| x2
||--2-2--4/5----4/5----4/5----3---||
||--0-0--2/3-0--2/3-0--2/3-0--1---||
    . .

Riff 2 (x3)
Riff 3 (x2)

End Riff
||-------||
||-------||
||-------||
||-------||
||--2-2--||
||--0-0--||

End

  Visit MetalTabs.com for more metal tablature

bottom separator

Contact Us | Privacy Policy | Disclaimer | Legal Notice
Copyright © 2001-2014 MetalTabs.com. All Rights Reserved.