top separator

Home

Forum

What's New

Submit a Tab

FAQ

Links

Contact Us

Link to Us

MetalTabs.com logo

Bands

0-9

A

B

C

D

E

F

G

H

I

J

K

L

M

N

O

P

Q

R

S

T

U

V

W

X

Y

Z

Search

What

Where
 

Catasexual Urge Motivation - "He Shot Her Down And Ate Her Flesh, And Then He Said Excuse Me For Living, But I Preferred To Be Eat" Guitar Tab

Plain Text Version
More Catasexual Urge Motivation Tabs

Hits: 1977
Updated: 2007-01-02 21:23:49

 

By:

Cunty Shunt

sendpm.gif

email.gif

Important note
This tab is available online because we obtained explicit permission from Catasexual Urge Motivation or their label.


#----------------------------------PLEASE NOTE---------------------------------#
#This file is the author's own work and represents their interpretation of the #
#song. You may only use this file for private study, scholarship, or research. #
#Unless specified otherwise, this is NOT an official tab from the band members.#
#------------------------------------------------------------------------------#

  Visit MetalTabs.com for more metal tablature
  
Band:  Catasexual Urge Motivation
Album: The Encyclopedia of Serial Murders
Song:  He Shot Her Down And Ate Her Flesh, And Then He
       Said Excuse Me For Living, But I Preferred To Be Eat



Copyright (c)  Deliria Records 1997
Version 1.0 - 12-29-06

Transcribed By: Jim Haras
Email:          jimharas@yahoo.com


.  - palm mute           /  - slide up to
\  - slide down to       ~  - vibrato
h  - hammer on           b  - Bend
p  - pull off            Suffixes for bend
t  - tap                 f  - full bend    h - half bend
ph - pinched harmonic    q  - quarter bend t - tap bend
*  - see comment         ^  - Hold bend    r release bend
x  - Stuccatto           ~  - vibrato bend
,  - slight palm mute    () - ghost note, sustained note
"  - tremolo note        <> - Trill

Tuning B E A D G B

Riff 1a                 x3                            x1
||-----------------------|-----------------------------||
||-----------------------|-----------------------------||
||-----------------------|-----------------------------|| x3
||-----------------------|-----------------------------||
||---4---3-3--3-7~~~6~~~-|--4--444444--3--333333-------||
||---2---1-1--1-5~~~4~~~-|--2--222222--1--111111-------||

Riff 1b               x3                          x1
|----------------------|---------------------------|
|----------------------|---------------------------|
|----------------------|---------------------------|
|----------------------|---------------------------|
|--4---3---7~~~~~~~~---|--4--444444--3--333333-----|
|--2---1---5~~~~~~~----|--2--222222--1--111111-----|

Riff 2
|---------------|
|---------------|
|---------------| x27
|---------------|
|--4///8\\\-----|
|--2///6\\\-----|

Riff 3                     x2                       x2
||--------------------------|------------------------||
||--------------------------|------------------------||
||--------------------------|------------------------|| x3
||--------------------------|------------------------||
||--4--444444--4--4-444444--|--3--333333--3--333333--||
||--2--222222--2--2-222222--|--1--111111--1--111111--||

Riff 4                x3                        x1
||---------------------|-------------------------||
||---------------------|-------------------------||
||---------------------|-------------------------|| x3
||---------------------|-------------------------||
||--4---3-3--3-7~~~~~--|--4--444444--3--333333---||
||--2---1-1--1-5~~~~~--|--2--222222--1--111111---||

Riff 1b (x1)
Riff 2 (x37)

END

  Visit MetalTabs.com for more metal tablature

bottom separator

Contact Us | Privacy Policy | Disclaimer | Legal Notice
Copyright © 2001-2014 MetalTabs.com. All Rights Reserved.