top separator

Home

Forum

What's New

Submit a Tab

FAQ

Links

Contact Us

Link to Us

MetalTabs.com logo

Bands

0-9

A

B

C

D

E

F

G

H

I

J

K

L

M

N

O

P

Q

R

S

T

U

V

W

X

Y

Z

Search

What

Where
 

Catasexual Urge Motivation - "Mutilation, Rape And Serial Murder As Modern Metaphor" Guitar Tab

Plain Text Version
More Catasexual Urge Motivation Tabs

Hits: 2295
Updated: 2007-01-02 21:23:40

 

By:

Cunty Shunt

sendpm.gif

email.gif

Important note
This tab is available online because we obtained explicit permission from Catasexual Urge Motivation or their label.


#----------------------------------PLEASE NOTE---------------------------------#
#This file is the author's own work and represents their interpretation of the #
#song. You may only use this file for private study, scholarship, or research. #
#Unless specified otherwise, this is NOT an official tab from the band members.#
#------------------------------------------------------------------------------#

  Visit MetalTabs.com for more metal tablature
  
Band:  Catasexual Urge Motivation
Album: The Encyclopedia of Serial Murders
Song:  Mutilation, Rape And Serial Murder As Modern Metaphor


Copyright (c)  Deliria Records 1997
Version 1.0 - 12-29-06

Transcribed By: Jim Haras
Email:          jimharas@yahoo.com


.  - palm mute           /  - slide up to
\  - slide down to       ~  - vibrato
h  - hammer on           b  - Bend
p  - pull off            Suffixes for bend
t  - tap                 f  - full bend    h - half bend
ph - pinched harmonic    q  - quarter bend t - tap bend
*  - see comment         ^  - Hold bend    r release bend
x  - Stuccatto           ~  - vibrato bend
,  - slight palm mute    () - ghost note, sustained note
"  - tremolo note        <> - Trill

Tuning B E A D G B

Riff 1a
|-------------------------|
|-------------------------|
|-------------------------|
|-------------------------| x4
|----------3-2---1--------|
|--0-1/2\1-----3---2------|

Riff 1b
|-------------------------|
|-------------------------|
|-------------------------| x4
|----------3-2---1--------|
|--0-1/2\1-----3---2------|
|-------------------------|

Riff 1a (x4)
Riff 1b (x4)

Fill
|-------------------------|
|-------------------------|
|-------------------------|
|------------s l i d e----|
|--2---------x\\\\\\\\\\\-|
|--0---------x\\\\\\\\\\\-|

Riff 1a (x8)

Riff 2
||---------------------------------------|
||---------------------------------------|
||---------------------------------------|
||---------------------------------------|
||--2--33-3--2--33-3--2--33-3--2--33-3---|
||--0--11-1--0--11-1--0--11-1--0--11-1---|

con't
|---------------------------------------||
|---------------------------------------||
|---------------------------------------|| x3
|---------------------------------------||
|--5--66-6--5--66-6--5--66-6--5--66-6---||
|--3--44-4--3--44-4--3--44-4--3--44-4---||

Riff 1a (x8)
Riff 2 (x3)

Riff 3
|-----------------------------------|
|-----------------------------------|
|-----------------------------------| x4
|------------------3----3-2---1-----|
|--3----3-2---1----1--------3---2---|
|--1--------3---2-------------------|

Riff 1 (x10)

End on
|------|
|------|
|------|
|------|
|--3---|
|--1---|
End

  Visit MetalTabs.com for more metal tablature

bottom separator

Contact Us | Privacy Policy | Disclaimer | Legal Notice
Copyright © 2001-2014 MetalTabs.com. All Rights Reserved.