top separator

Home

Forum

What's New

Submit a Tab

FAQ

Links

Contact Us

Link to Us

MuSpy.com

MetalTabs.com logo

Bands

0-9

A

B

C

D

E

F

G

H

I

J

K

L

M

N

O

P

Q

R

S

T

U

V

W

X

Y

Z

Search

What

Where
 

Coroner - "Shadow Of A Lost Dream" Guitar Tab

Plain Text Version
More Coroner Tabs

Hits: 2550
Rated: 5.00 out of 5 (2 votes)
Updated: 2007-01-02 21:22:36

 

By:

Sycophant

sendpm.gif

email.gif

Important note
We did our best to reach Coroner and ask for their permission to publish this tab. Unfortunately they did not respond to our requests or we could not find a way to contact them. This tab is available online until Coroner tells us to take it down.


#----------------------------------PLEASE NOTE---------------------------------#
#This file is the author's own work and represents their interpretation of the #
#song. You may only use this file for private study, scholarship, or research. #
#Unless specified otherwise, this is NOT an official tab from the band members.#
#------------------------------------------------------------------------------#

  Visit MetalTabs.com for more metal tablature
  
Author/Artist: Coroner
Title: Shadow Of A Lost Dream
Album: Punishment For Decadence [1988 Noise Records]
Transcribed by: Greg D. [Sycophant]
Email: sentience666@hotmail.com

Tune To E.

0:00 - 0:13
------------------------------------------------------------------------------
------------------------------------------------------------------------------
------------------------------------------------------------------------------
------------------------------------------------------------------------------
-2----------2----------4----2----------2------4--5--6--2----------2-----------
-0--0-0-0-0-0--0-0-0-0-2----0--0-0-0-0-0--0-0-2--3--4--0--0-0-0-0-0--0-0-0-0--
    . . . .    . . . .         . . . .    . .             . . . .    . . . .

                             0:13 - 0:18 [fades out]
----------------------------|-------------------------------------------------
----------------------------|-------------------------------------------------
----------------------------|-----------------5-------------------------------
----------------------------|-----------------3----2--------------------------
-4--4--2----------2----3----|-2----------2---------2--------------------------
-2--2--0--0-0-0-0-0----1----|-0--0-0-0-0-0---------0--------------------------
          . . . .                . . . .

0:14 - 0:25
---------------------------------------|-----------|--------------------------
---------------------------------------|-----------|--------------------------
---------------------------------------|-----------|--------------------------
---------------------------------------|----9--10--|--------------------------
---------------------------------------|-7--7--8---|-7--8--5------------------
-0-7-10-0-6-9-0-5-8-0-4-7-0-7-10-0-6-9-|-5---------|-5--6--3------------------
                                            end 1      end 2

0:25 - 0:37
---------------------------------------|-----------|--------------------------
---------------------------------------|-----------|--------------------------
---------------------------------------|-----------|--------------------------
---------------------------------------|----9--10--|--------------------------
---------------------------------------|-7--7--8---|-7--8--5------------------
-0-7-10-0-6-9-0-5-8-0-4-7-0-7-10-0-6-9-|-5---------|-5--6--3------------------
 . . .  . . . . . . . . . . . .  . . .       end 1     end 2

0:37 - 0:47
--------------------------------------------------|---------------------------
--------------------------------------------------|---------------------------
--------------------------------------------------|---------------------------
----------------------7-7/8-------------8---7-----|---------------------------
---------8\7----------5-5/6--------8\7--6---5---8-|---------------------------
-5-5-5-5-6\5--5-5-5-5------5-5-5-5-6\5----------6-|---------------------------
 . . . .      . . . .      . . . .              x4

0:47 - 0:57
------------------------------------------------------------------------------
------------------------------------------------------------------------------
------------------------------------------------------------------------------
-7--------------6-----7-----------------------------5---7-7--------------6----
-5--5-5-5-5-5-5----5-----5--5-5-5-5-5-5-5-5-7-8-7-8---8---5--5-5-5-5-5-5----5-
------------------------------------------------------------------------------
    . . . . . .               . . . . . .                    . . . . . .

--------------------------|--------------------|------------------------------
--------------------------|--------------------|------------------------------
--------------------------|--------------------|------------------------------
-7---------------------9--|---------------7----|------------------------------
----5--7--7------6--6--7--|-7----------6--5--8-|------------------------------
-------5--5--0-0-4--4-----|-5--5-5-5-5-4-----6-|------------------------------
             . .               . . . .    end 2

0:57 - 1:07
------------------------------------------------------------------------------
------------------------------------------------------------------------------
------------------------------------------------------------------------------
---------------------------------------8-----------------------------------8--
------------------4-----4--------------6----6---------------------4-----4--6--
-3--3-3-3--3-3-3-----3-----3--3-3-3--3------4----3--3-3-3--3-3-3-----3--------
    . . .  . . .              . . .  .              . . .  . . .

                  1:07 - 1:17
-----------------|------------------------------------------------------------
-----------------|------------------------------------------------------------
-----------------|------------------------------------------------------------
-----------------|-----------------8-8---7-7--------------------8-7-5-7-------
--6----5----3----|-7---8-7---8-7---6-6---5-5--8-7---8-7---8-7---6-5-3-5-8-5---
--4----3----1----|-5---6-5---6-5--------------6-5---6-5---6-5-----------6-3---


1:37 - 1:58 [Chorus Riff]
------------------------------------------------------------------------------
------------------------------------------------------------------------------
------------------------------------------------------------------------------
-9-----7-----5-----7-----9---10--9-----7-----9---------------7-9-----7-----5--
-7-----5-----3-----5-----7---8---7-----5-----7---------------5-7-----5-----3--
---0-0---0-0---0-0---0-0---0---0---0-0---0-0-----000-000-000-----0-0---0-0----
   . .   . .   . .   . .   .   .   . .   . .     ... ... ...     . .   . .

                                                              1:58
------------------------------------------------------------|-----------------
------------------------------------------------------------|-----------------
------------------------------------------------------------|-----------------
-----7-----9---10--8---8--8---------------------------------|-2---------------
-----5-----7---8---6---6--6-5--6--8--6--5--3--6-5-3---------|-2---------------
-0-0---0-0---0---0----------------------------------6-5-3-0-|-0---------------
 . .   . .   .   .

    2:04 - 2:15
---|--------------------------------------------------------------------------
---|--------------------------------------------------------------------------
---|--------------------------------------------------------------------------
---|-2----------2----------4---2----------2------4--5--7--2----------2--------
-3-|-0--0-0-0-0-0--0-0-0-0-2---0--0-0-0-0-0--0-0-2--3--5--0--0-0-0-0-0--0-0-0-
-1-|--------------------------------------------------------------------------
        . . . .    . . . .        . . . .    . .             . . . .

                           2:15 - 2:26
--------------------------|---------------------------------------------------
--------------------------|---------------------------------------------------
--------------------------|---------------------------------------------------
---4---2----------2----3--|---------------------------------------------------
-0-2---0--0-0-0-0-0----1--|---------------------------------------------------
--------------------------|---------------------------------------------------
 .        . . . .       x2  same as before except 1 string lower [in E]

2:26 - 2:31 Guitar 1
--------------------------------------------------------|---------------------
--------------------------------------------------------|---------------------
--------------------------------------------------------|---------------------
------------10---10-9-7-----------------9---9-7-5-------|---------------------
-6/7--7-7-7-------------10-9-7-6--6-6-6-----------9-7-6-|---------------------
--------------------------------------------------------|---------------------
                                                      x2
2:26 - 2:31 Guitar 2
---------------------------------------------------------------|--------------
------------13---13-12-10------------------12---12-10-8--------|--------------
-8/9--9-9-9---------------12-11-9-8--8-8-8--------------11-9-8-|--------------
---------------------------------------------------------------|--------------
---------------------------------------------------------------|--------------
---------------------------------------------------------------|--------------
                                                             x2

2:31 - 2:34                 2:34 - 2:45        end 1,3,5,7     end 2,4,6,8
--------------------------|----------------|----------------|-----------------
--------------------------|----------------|----------------|-----------------
--------------------------|----------------|----------------|-----------------
-9------------------------|------9/10-9/10-|------8p7-8h9p8-|-----------------
-7--9--10--7--9--5--7--4--|-2222-7/8--7/8--|-2222-----------|-2-7\6---6\5-5\4-
----7--8---5--7--3--5--2--|-0000-----------|-0000-----------|-0-5\4-0-4\3-3\2-
                            ....             ....             .     .

- then @ 2:45 - 2:55 play the same part but do all the pm'ed E5 triplets like
Tommy does on the recording.

2:55 - 3:10
---------------------------------------------|--------------------------------
---------------------------------------------|--------------------------------
---------------------------------------------|--------------------------------
-----------2-5-4-2---------------------------|--------------------------------
-2---2-4-5---------5-4-----------2-5-4-2-----|-3--333333333-3333333333-2-0----
-----------------------2---2-4-5---------5-4-|-1--111111111-------------------
                                           x2     .........

3:29 - 3:35
------------------------------------------------------------------------------
------------------------------------------------------------------------------
------------------------------------------------------------------------------
-----------------------------5---------------7-5-----5-------7-5-----7-5------
-6-5-3---3-----8--6-5-6--5-8---8-6-5-8-6-5-6-----8-6---8-6-8-----8-6-----8-6--
-------6----6-----------------------------------------------------------------

                                    4:24 - 4:31 [Finale]
-----------------------------------|------------------------------------------
-----------------------------------|------------------------------------------
-----------------------------------|------------------------------------------
-5---------------------------------|------------------------------5-----------
---8-6-5-8-6-5-3-6-5-3---3-------3-|-6-5-3---3-----8-6-5-8-6--------8-6-5-8---
-----------------------6---6-5-3-1-|-------6----6-------------8-6-------------


------------------------------------------------------------------------------
------------------------------------------------------------------------------
------------------------------------------------------------------------------
-------7-5-----7-------8-7-5---7-5-----5--------------------------------------
-6-5-------8-6---8-6-5-------8-----8-6---8-6-5-8-6-5-3-6-5-3---5-3-----3------
-----8-------------------------------------------------------6-----6-5---6-5--


------------------------------------------------------------------------------
------------------------------------------------------------------------------
------------------------------------------------------------------------------
------------------------------------------------------------------------------
-----------5--------/---------------------------------------------------------
-3-6-5-3\1-3--------/---------------------------------------------------------

  Visit MetalTabs.com for more metal tablature

bottom separator

Contact Us | Privacy Policy | Disclaimer | Legal Notice
Copyright © 2001-2014 MetalTabs.com. All Rights Reserved.