top separator

Home

Forum

What's New

Submit a Tab

FAQ

Links

Contact Us

Link to Us

MetalTabs.com logo

Bands

0-9

A

B

C

D

E

F

G

H

I

J

K

L

M

N

O

P

Q

R

S

T

U

V

W

X

Y

Z

Search

What

Where
 

Tierra Santa - "El Bastón del Diablo" Guitar Tab

Plain Text Version
More Tierra Santa Tabs

Hits: 2869
Rated: 5.00 out of 5 (4 votes)
Updated: 2007-01-02 20:41:22

 

By:

naat

sendpm.gif

email.gif

Important note
We did our best to reach Tierra Santa and ask for their permission to publish this tab. Unfortunately they did not respond to our requests or we could not find a way to contact them. This tab is available online until Tierra Santa tells us to take it down.


#----------------------------------PLEASE NOTE---------------------------------#
#This file is the author's own work and represents their interpretation of the #
#song. You may only use this file for private study, scholarship, or research. #
#Unless specified otherwise, this is NOT an official tab from the band members.#
#------------------------------------------------------------------------------#

  Visit MetalTabs.com for more metal tablature
  
--------------------------------------------------------------------------
 Title:    | El Bastón Del Diablo
--------------------------------------------------------------------------
 Artist:   | Tierra Santa
 Album:    | Legendario
 Author:   | Tierra Santa
 Copyright:| 1999 LOCOMOTIVE MUSIC
 Tab:      | Nestor Arroliga Tellez [naat]
 E-mail:   | maiden_nat@yahoo.com
--------------------------------------------------------------------------

[Intro]:

Guitar 1: (clean)
e|-----------------|----------------|-----------------|----------------|
B|---------2-------|---------2------|---------7-------|---------7------|
G|-----------2-----|----------------|-----9-----9-----|-----9------9---|
D|-4---4-------4---|-4---4------4---|-9-----9-----9---|-9-----9------9-|
A|---4---4-------4-|---4---4------4-|---7-----------7-|---7------------|
E|-----------------|----------------|-----------------|----------------|

Guitar 2: (clean)
e|-----------------|----------------|-7---------------|----------------|
B|-7---10-9h10p9---|-7-------7-9-10-|------10----9----|-----------7-9--|
G|---------------9-|----------------|-----------------|-9-----7h9------|
D|-----------------|----------------|-----------------|----------------|
A|-----------------|----------------|-----------------|----------------|
E|-----------------|----------------|-----------------|----------------|

Guitar 1: (clean)
e|-----------------|----------------|---------4-------|--4-------------|
B|---------5-------|---------5------|-------4---4-----|--4-------------|
G|-----7-----7-----|-----7------7---|-----6-------6---|--6-------------|
D|-7-----7-----7---|-7-----7------7-|---6-----------6-|--6-------------|
A|---5-----------5-|---5------------|-4---------------|--4-------------|
E|-----------------|----------------|-----------------|----------------|

Guitar 2: (clean)
e|-----------------|----------------|-----------------|----------------|
B|-10----9----7----|-9h10---9----7--|-9------9h10-9-7-|--9~------------|
G|-----------------|----------------|-----------------|----------------|
D|-----------------|----------------|-----------------|----------------|
A|-----------------|----------------|-----------------|----------------|
E|-----------------|----------------|-----------------|----------------|

Guitar 1: (clean)
e|-----------------|----------------|-----------------|----------------|
B|---------2-------|---------2------|---------7-------|---------7------|
G|-----------2-----|----------------|-----9-----9-----|-----9------9---|
D|-4---4-------4---|-4---4------4---|-9-----9-----9---|-9-----9------9-|
A|---4---4-------4-|---4---4------4-|---7-----------7-|---7------------|
E|-----------------|----------------|-----------------|----------------|

Guitar 2: (clean)
e|-----------------|----------------|-7---------------|----------------|
B|-7---10-9h10p9---|-7-------7-9-10-|------10----9----|-----------7-9--|
G|---------------9-|----------------|-----------------|-9-----7h9------|
D|-----------------|----------------|-----------------|----------------|
A|-----------------|----------------|-----------------|----------------|
E|-----------------|----------------|-----------------|----------------|

Guitar 1: (clean)
e|-----------------|----------------|---------4-------|--4-------------|
B|---------5-------|---------5------|-------4---4-----|--4-------------|
G|-----7-----7-----|-----7------7---|-----6-------6---|--6-------------|
D|-7-----7-----7---|-7-----7------7-|---6-----------6-|--6-------------|
A|---5-----------5-|---5------------|-4---------------|--4-------------|
E|-----------------|----------------|-----------------|----------------|

Guitar 2: (clean)
e|-----------------|------------10--|-9------9h10-9-7-|--9~------------|
B|-10----9----7----|-9h10---9-------|-----------------|----------------|
G|-----------------|----------------|-----------------|----------------|
D|-----------------|----------------|-----------------|----------------|
A|-----------------|----------------|-----------------|----------------|
E|-----------------|----------------|-----------------|----------------|


[Verse Riff 1]: 2x

Both Guitars: (clean)
e|-----------------|----------------|-----------------|----------------|
B|---------2-------|---------2------|---------7-------|---------7------|
G|-----------2-----|----------------|-----9-----9-----|-----9------9---|
D|-4---4-------4---|-4---4------4---|-9-----9-----9---|-9-----9------9-|
A|---4---4-------4-|---4---4------4-|---7-----------7-|---7------------|
E|-----------------|----------------|-----------------|----------------|

Both Guitars: (clean)
e|-----------------|----------------|---------4-------|--4-------------|
B|---------5-------|---------5------|-------4---4-----|--4-------------|
G|-----7-----7-----|-----7------7---|-----6-------6---|--6-------------|
D|-7-----7-----7---|-7-----7------7-|---6-----------6-|--6-------------|
A|---5-----------5-|---5------------|-4---------------|--4-------------|
E|-----------------|----------------|-----------------|----------------|


[Riff A]:

Guitar 1:
e|---------------7-|-----------------|---------------7-|-----------------|
B|-7--7-9-10-7-9---|-10-9-7-10-9-7---|-7--7-9-10-7-9---|-10-9-7-10-9-7---|
G|--9--------------|---------------9-|--9--------------|---------------9-|
D|-----------------|-----------------|-----------------|-----------------|
A|-----------------|-----------------|-----------------|-----------------|
E|-----------------|-----------------|-----------------|-----------------|

Guitar 2:
e|-----------------|-----------------|-----------------|-----------------|
B|-----------------|-----------------|-----------------|-----------------|
G|-----------------|-----------------|-----------------|-----------------|
D|-----------------|-----------------|-----------------|-----------------|
A|-4---------------|--------------4--|-2---------------|--------------2--|
E|-2---------------|--------------2--|-0---------------|--------------0--|

Guitar 1:
e|---------------7-|-----------------|---------------7-|-----------------|
B|-7--7-9-10-7-9---|-10-9-7-10-9-7---|-7--7-9-10-7-9---|-10-9-7-10-9-7---|
G|--9--------------|---------------9-|--9--------------|---------------9-|
D|-----------------|-----------------|-----------------|-----------------|
A|-----------------|-----------------|-----------------|-----------------|
E|-----------------|-----------------|-----------------|-----------------|

Guitar 2:
e|-----------------|-----------------|-----------------|-----------------|
B|-----------------|-----------------|-----------------|-----------------|
G|-----------------|-----------------|-----------------|-----------------|
D|-7------------7--|-----------------|-4---------------|-6---------------|
A|-5------------5--|-----------------|-2---------------|-4---------------|
E|-----------------|-----------------|-----------------|-----------------|


[Riff B]:

Guitar 1:
e|---------------7-|-----------------|---------------7-|-----------------|
B|-7--7-9-10-7-9---|-10-9-7-10-9-7---|-7--7-9-10-7-9---|-10-9-7-10-9-7---|
G|--9--------------|---------------9-|--9--------------|---------------9-|
D|-----------------|-----------------|-----------------|-----------------|
A|-----------------|-----------------|-----------------|-----------------|
E|-----------------|-----------------|-----------------|-----------------|

Guitar 2:
e|-----------------|-----------------|-----------------|-----------------|
B|-----------------|-----------------|-----------------|-----------------|
G|--------------4--|-----------------|--------------4--|-----------------|
D|-4--4-6-7-4-6----|--7-6-4-7-6-4----|-4--4-6-7-4-6----|--7-6-4-7-6-4----|
A|--7--------------|--------------7--|--7--------------|--------------7--|
E|-----------------|-----------------|-----------------|-----------------|

Guitar 3:
e|-----------------|-----------------|-----------------|-----------------|
B|-----------------|-----------------|-----------------|-----------------|
G|-----------------|-----------------|-----------------|-----------------|
D|-----------------|-----------------|-----------------|-----------------|
A|-4---------------|-----------------|-2---------------|-----------------|
E|-2-2-2-2-2-2-2-2-|-2-2-2-2-2-2-2-2-|-0-0-0-0-0-0-0-0-|-0-0-0-0-0-0-0-0-|
pm   .............   ...............     .............   ...............

Guitar 1:
e|---------------7-|-----------------|---------------7-|-----------------|
B|-7--7-9-10-7-9---|-10-9-7-10-9-7---|-7--7-9-10-7-9---|-10-9-7-10-9-7---|
G|--9--------------|---------------9-|--9--------------|---------------9-|
D|-----------------|-----------------|-----------------|-----------------|
A|-----------------|-----------------|-----------------|-----------------|
E|-----------------|-----------------|-----------------|-----------------|

Guitar 2:
e|-----------------|-----------------|-----------------|-----------------|
B|-----------------|-----------------|-----------------|-----------------|
G|--------------4--|-----------------|--------------4--|-----------------|
D|-4--4-6-7-4-6----|--7-6-4-7-6-4----|-4--4-6-7-4-6----|--7-6-4-7-6-4----|
A|--7--------------|--------------7--|--7--------------|--------------7--|
E|-----------------|-----------------|-----------------|-----------------|

Guitar 3:
e|-----------------|-----------------|-----------------|-----------------|
B|-----------------|-----------------|-----------------|-----------------|
G|-----------------|-----------------|-----------------|-----------------|
D|-7---------------|-----------------|-4---------------|-6---------------|
A|-5-5-5-5-5-5-5-5-|-5-5-5-5-5-5-5-5-|-2-2-2-2-2-2-2-2-|-4-4-4-4-4-4-4-4-|
E|-----------------|-----------------|-----------------|-----------------|
pm   .............   ...............     .............     .............


[Verse Riff 2]:

Guitar 1:
e|-----------------|-----------------|-----------------|-----------------|
B|-----------------|-----------------|-----------------|-----------------|
G|-----------------|-----------------|-----------------|-----------------|
D|-----------------|-----------------|-----------------|-----------------|
A|-4---------------|-(4)-------------|-2---------------|-(2)-------------|
E|-2---------------|-(2)-------------|-0---------------|-(0)-------------|

Guitar 2:
e|-----------------|-----------------|-----------------|-----------------|
B|-----------------|-----------------|-----------------|-----------------|
G|--------------4--|-----------------|--------------4--|-----------------|
D|-4--4-6-7-4-6----|--7-6-4-7-6-4----|-4--4-6-7-4-6----|--7-6-4-7-6-4----|
A|--7--------------|--------------7--|--7--------------|--------------7--|
E|-----------------|-----------------|-----------------|-----------------|

Guitar 1:
e|---------------------------|---------------------------|-------|-------|
B|---------------------------|---------------------------|-------|-------|
G|---------------------------|---------------------------|-------|-------|
D|-7---------7---------7-----|-7---------7---------7-----|-4-----|-6-----|
A|-5-5-5-5-5-5-5-5-5-5-5-5-5-|-5-5-5-5-5-5-5-5-5-5-5-5-5-|-2-----|-4-----|
E|---------------------------|---------------------------|-------|-------|
pm   .......   .......   ...     .......   .......   ...

Guitar 2:
e|-----------------------|---------------------|-------------|-------|
B|-----------------------|---------------------|-------------|-------|
G|-----------------------|---------------------|-6~----------|-------|
D|--7-6h7p6-----6-7-9-7--|--7-6h7p6-----6-7-9--|------9-7-6--|--6\---|
A|----------9-7----------|----------9-7--------|-------------|-------|
E|-----------------------|---------------------|-------------|-------|

Guitar 1:
e|-----------------|-----------------|-----------------|-----------------|
B|-----------------|-----------------|-----------------|-----------------|
G|-----------------|-----------------|-----------------|-----------------|
D|-----------------|-----------------|-----------------|-----------------|
A|-4---------------|-(4)-------------|-2---------------|-(2)-------------|
E|-2---------------|-(2)-------------|-0---------------|-(0)-------------|

Guitar 2:
e|-----------------|-----------------|-----------------|-----------------|
B|-----------------|-----------------|-----------------|-----------------|
G|--------------4--|-----------------|--------------4--|-----------------|
D|-4--4-6-7-4-6----|--7-6-4-7-6-4----|-4--4-6-7-4-6----|--7-6-4-7-6-4----|
A|--7--------------|--------------7--|--7--------------|--------------7--|
E|-----------------|-----------------|-----------------|-----------------|

Guitar 1:
e|---------------------------|---------------------------|-----|---------|
B|---------------------------|---------------------------|-----|---------|
G|---------------------------|---------------------------|-----|---------|
D|-7---------7---------7-----|-7---------7---------7-----|-4---|-6-------|
A|-5-5-5-5-5-5-5-5-5-5-5-5-5-|-5-5-5-5-5-5-5-5-5-5-5-5-5-|-2---|-4--0--2-|
E|---------------------------|---------------------------|-----|-------0-|
pm   .......   .......   ...     .......   .......   ...

Guitar 2:
e|----------------------------|------------------------|-9~----10-|-9~---|
B|-10-9h10p9------9-10-12-10--|-10-9h10p9-----9-10-12--|----------|------|
G|-----------11-9-------------|----------11-9----------|----------|------|
D|----------------------------|------------------------|----------|------|
A|----------------------------|------------------------|----------|------|
E|----------------------------|------------------------|----------|------|


[Chorus]: 2x

Both Guitars:
e|---------------------------|------------------------|
B|---------------------------|------------------------|
G|---------------------------|------------------------|
D|---------------------------|------------------------|
A|-4---------4---------4-----|-4---------4---------2--|
E|-2-2-2-2-2-2-2-2-2-2-2-2-2-|-2-2-2-2-2-2-2-2-2-2-0--|
pm   .......   .......   ...     .......   .......

Both Guitars:              2x|                         2x|
e|---------------------------|---------------------------|
B|---------------------------|---------------------------|
G|---------------------------|---------------------------|
D|-7---------7---------7-----|-4---------4---------4-----|
A|-5-5-5-5-5-5-5-5-5-5-5-5-5-|-2-2-2-2-2-2-2-2-2-2-2-2-2-|
E|---------------------------|---------------------------|
pm   .......   .......   ...     .......   .......   ...

Both Guitars:
 |1.                      |2.
e|-------|------------|  e|------|------|-------|
B|-------|------------|  B|------|------|-------|
G|-------|------------|  G|------|------|-------|
D|-2-----|-6----------|  D|-2----|-6----|-(6)---|
A|-0-----|-4----0--2--|  A|-0----|-4----|-(4)---|
E|-------|---------0--|  E|------|------|-------|


[Riff B]


[Riff C]:

Guitar 1:                             4x|
e|------------------|---------------7---|
B|-7--7-9-10-7-9-10-|-7-9-10-7-9-10---7-|
G|--9---------------|-------------------|
D|------------------|-------------------|
A|------------------|-------------------|
E|------------------|-------------------|

Guitar 2:
e|------|------|--------|------|------|
B|------|------|--------|------|------|
G|------|------|--------|------|------|
D|------|------|-7---7--|-4----|-6----|
A|-4----|-2----|-5---5--|-2----|-4----|
E|-2----|-0----|--------|------|------|


[Solo ]:

Guitar 1:
e|------|------|-------|---------|-----------------------|---------------|
B|------|------|-------|---------|-----7-10-10~---12-12b-|-(12b)---10-12-|
G|------|------|-7\5br-|-5p4-5br-|---9----------9--------|---------------|
D|------|------|-------|---------|-9---------------------|---------------|
A|-4~---|-(4)~-|-------|---------|-----------------------|---------------|
E|------|------|-------|---------|-----------------------|---------------|

Guitar 1:                                          S.H.
e|----------|---------------------|---------------------|-----------------
B|-12br--10-|-12-10-9---9---------|---------------------|-----------------
G|----------|---------11--9-11-9~-|-(9~)--11-----9------|--------------9--
D|----------|---------------------|----------9~----<7b>-|-----9---9-11----
A|----------|---------------------|---------------------|-9-12--12--------
E|----------|---------------------|---------------------|-----------------
                                                        pm ..............
Guitar 1:
e|----------------------------|--12br-12b-|-------------------------------
B|------10-12-10---10-12-12br-|-----------|-------------------------------
G|----9---------13------------|-----------|---------------------9--9h11p9-
D|-11-------------------------|-----------|-------9---9h12p9h12--12-------
A|----------------------------|-----------|-9-9h12--12--------------------
E|----------------------------|-----------|-------------------------------

Guitar 1:
e|-----------------10--10h12p10-12-15br-|-15b--17p15h17p15-|-14h16p14-----
B|-10p9h10-12-10h12--12-----------------|------------------|----------17--
G|--------------------------------------|------------------|--------------
D|--------------------------------------|------------------|--------------
A|--------------------------------------|------------------|--------------
E|--------------------------------------|------------------|--------------

Guitar 1:
e|-14--------14--------14--14h16-16b-14-|-16-17-16-17-19-|-19b-19b--19p17-
B|---17p15h17--17p15h17--17-------------|--/--/--/--/--/-|----------------
G|--------------------------------------|--/--/--/--/--/-|----------------
D|--------------------------------------|--/--/--/--/--/-|----------------
A|--------------------------------------|----------------|----------------
E|--------------------------------------|----------------|----------------

Guitar 1:
e|-19p17-16h17p16-14h17-16-17-14h16p14-----16p14--14-|------14------------
B|------------------------------------17-15-----17---|-17p15--17-15h17p15-
G|---------------------------------------------------|--------------------
D|---------------------------------------------------|--------------------
A|---------------------------------------------------|--------------------
E|---------------------------------------------------|--------------------

Guitar 1:                                                     A.H    A.H.
e|--------------------------|----------|--------------------------|-------
B|-14-15-17-15p14h15-14-----|-14~---15-|-(15)~--12h14-12b-12b-----|-<10b>-
G|----------------------14b-|----------|----------------------<9>-|-------
D|--------------------------|----------|--------------------------|-------
A|--------------------------|----------|--------------------------|-------
E|--------------------------|----------|--------------------------|-------

Guitar 1:
  A.H. .......   A.H. ..
e|-------------|----------------|---------------|----------------|--------
B|----<10b>----|-<10>-----------|---------------|----9----9~-----|-9-10---
G|-<9>-----<9>-|-----<9>--------|-9--9--9-------|-11---11------9-|--------
D|-------------|----------12-11-|-9b-9b-9br--11-|----------------|--------
A|-------------|----------------|---------------|----------------|--------
E|-------------|----------------|---------------|----------------|--------

Guitar 1:
e|------------|---------|-------|------------|------|------|
B|-9-10-12-10-|-12b-----|-------|------------|------|------|
G|------------|---------|-------|-6h7--6-----|------|------|
D|------------|---------|-4-----|---------7--|-4~---|-4\---|
A|------------|---------|-4-----|------------|------|------|
E|------------|---------|-2-----|------------|------|------|


[Rhythm Under Solo]:

Guitar 2:
e|-----------------|-----------------|-----------------|-----------------|
B|-----------------|-----------------|-----------------|-----------------|
G|-----------------|-----------------|-----------------|-----------------|
D|-----------------|-----------------|-----------------|-----------------|
A|-4---------------|-----------------|-2---------------|-----------------|
E|-2-2-2-2-2-2-2-2-|-2-2-2-2-2-2-2-2-|-0-0-0-0-0-0-0-0-|-0-0-0-0-0-0-0-0-|
pm   .............   ...............     .............   ...............

Guitar 2:
e|-----------------|-----------------|-----------------|-----------------|
B|-----------------|-----------------|-----------------|-----------------|
G|-----------------|-----------------|-----------------|-----------------|
D|-7---------------|-----------------|-4---------------|-6---------------|
A|-5-5-5-5-5-5-5-5-|-5-5-5-5-5-5-5-5-|-2-2-2-2-2-2-2-2-|-4-4-4-4-4-4-4-4-|
E|-----------------|-----------------|-----------------|-----------------|
pm   .............   ...............     .............     .............

Repeat above riffs once and then:

Guitar 2:
e|------|------|------------|------------|
B|------|------|------------|------------|
G|------|------|----6--7--6-|----6--7--6-|
D|-7----|-9----|-4----------|-4----------|
A|-5----|-7----|------------|------------|
E|------|------|------------|------------|
               pm   .. .. ..     .. .. ..

e|------|------|------------|------------|
B|------|------|------------|------------|
G|------|------|------------|------------|
D|-7----|-9----|----6--7--6-|----6--7--6-|
A|-5----|-7----|-4----------|-4----------|
E|------|------|------------|------------|
               pm   .. .. ..     .. .. ..

Repeat above riffs once and then end with F#5 (let ring)


[Verse Riff 2]

[Chorus]


[Interlude]: 2x

Guitar 1:
e|------------------|-------------------|
B|-7-0-9-0-10-0-9-0-|-12-0-10-0-9-0-5-0-|
G|------------------|-------------------|
D|------------------|-------------------|
A|------------------|-------------------|
E|------------------|-------------------|

Guitar 2:
e|------------------|-------------------|
B|------------------|-------------------|
G|------------------|-------------------|
D|------------------|-------------------|
A|-4----------------|-------------------|
E|-2--2-2-2-2-2-2-2-|-2-2-2-2-2-2-2-2-2-|
pm    .............   .................

Guitar 1:
e|------------------|-------------------|
B|-7-0-9-0-10-0-9-0-|-12-0-10-0-9-0-5-0-|
G|------------------|-------------------|
D|------------------|-------------------|
A|------------------|-------------------|
E|------------------|-------------------|

Guitar 2:
e|------------------|-------------------|
B|------------------|-------------------|
G|------------------|-------------------|
D|------------------|-------------------|
A|-2----------------|-------------------|
E|-0--0-0-0-0-0-0-0-|-0-0-0-0-0-0-0-0-0-|
pm    .............   .................

Guitar 1:
e|------------------|-------------------|
B|-7-0-9-0-10-0-9-0-|-12-0-10-0-9-0-5-0-|
G|------------------|-------------------|
D|------------------|-------------------|
A|------------------|-------------------|
E|------------------|-------------------|

Guitar 2:
e|------------------|-------------------|
B|------------------|-------------------|
G|------------------|-------------------|
D|-7----------------|-------------------|
A|-5--5-5-5-5-5-5-5-|-5-5-5-5-5-5-5-5-5-|
E|------------------|-------------------|
pm    .............   .................

Guitar 1:
e|------------------|--------------------|
B|-7-0-9-0-10-0-9-0-|-14-0-12-0-10-0-9-0-|
G|------------------|--------------------|
D|------------------|--------------------|
A|------------------|--------------------|
E|------------------|--------------------|

Guitar 2:
e|------------------|--------------------|
B|------------------|--------------------|
G|------------------|--------------------|
D|-4----------------|-6------------------|
A|-2--2-2-2-2-2-2-2-|-4--4-4-4-4-4-4-4-4-|
E|------------------|--------------------|
pm    .............      ...............


[Outro]: 2x

Guitar 1:
e|---------------7-|-----------------|-----------------|-----------------|
B|-7--7-9-10-7-9---|-10-9-7-10-9-7---|-7~--------------|-------------7\--|
G|--9--------------|---------------9-|-----------------|-----------------|
D|-----------------|-----------------|-----------------|-----------------|
A|-----------------|-----------------|-----------------|-----------------|
E|-----------------|-----------------|-----------------|-----------------|

Guitar 2:
e|-----------------|-----------------|-----------------|-----------------|
B|-----------------|-----------------|-----------------|-----------------|
G|--------------4--|-----------------|--------------4--|-----------------|
D|-4--4-6-7-4-6----|--7-6-4-7-6-4----|-4--4-6-7-4-6----|--7-6-4-7-6-4----|
A|--7--------------|--------------7--|--7--------------|--------------7--|
E|-----------------|-----------------|-----------------|-----------------|

Guitar 3:
e|-----------------|-----------------|-----------------|-----------------|
B|-----------------|-----------------|-----------------|-----------------|
G|-----------------|-----------------|-----------------|-----------------|
D|-----------------|-----------------|-----------------|-----------------|
A|-4---------------|-----------------|-2---------------|-----------------|
E|-2-2-2-2-2-2-2-2-|-2-2-2-2-2-2-2-2-|-0-0-0-0-0-0-0-0-|-0-0-0-0-0-0-0-0-|
pm   .............   ...............     .............   ...............

Guitar 1:
e|---------------7-|-----------------|-----------------|-----------------|
B|-7--7-9-10-7-9---|-10-9-7-10-9-7---|-9~-----------10-|-9~--------------|
G|--9--------------|---------------9-|-----------------|-----------------|
D|-----------------|-----------------|-----------------|-----------------|
A|-----------------|-----------------|-----------------|-----------------|
E|-----------------|-----------------|-----------------|-----------------|

Guitar 2:
e|-----------------|-----------------|-----------------|-----------------|
B|-----------------|-----------------|-----------------|-----------------|
G|--------------4--|-----------------|--------------4--|-----------------|
D|-4--4-6-7-4-6----|--7-6-4-7-6-4----|-4--4-6-7-4-6----|--7-6-4-7-6-4----|
A|--7--------------|--------------7--|--7--------------|--------------7--|
E|-----------------|-----------------|-----------------|-----------------|

Guitar 3:
e|-----------------|-----------------|-----------------|-----------------|
B|-----------------|-----------------|-----------------|-----------------|
G|-----------------|-----------------|-----------------|-----------------|
D|-7---------------|-----------------|-4---------------|-6---------------|
A|-5-5-5-5-5-5-5-5-|-5-5-5-5-5-5-5-5-|-2-2-2-2-2-2-2-2-|-4-4-4-4-4-4-4-4-|
E|-----------------|-----------------|-----------------|-----------------|
pm   .............   ...............     .............     .............

Then Both Guitars end with F#5

----------------------------------------------------------------------
Tablature Explanation
----------------------------------------------------------------------
 h   : hammer on    | b   : bend
 p   : pull off     | br  : bend - release
 /   : slide up     | t   : tapping
 \   : slide down   | tr  : trill
 \/  : dive         | x   : muted note
 ~   : Vibrato      | ()  : ghost note
 ~~~ : wide vibrato | <>  : harmonics
 pm..: palm mute    | /// : tremolo picking
----------------------------------------------------------------------

  Visit MetalTabs.com for more metal tablature

bottom separator

Contact Us | Privacy Policy | Disclaimer | Legal Notice
Copyright © 2001-2014 MetalTabs.com. All Rights Reserved.