top separator

Home

Forum

What's New

Submit a Tab

FAQ

Links

Contact Us

Link to Us

MuSpy.com

MetalTabs.com logo

Bands

0-9

A

B

C

D

E

F

G

H

I

J

K

L

M

N

O

P

Q

R

S

T

U

V

W

X

Y

Z

Search

What

Where
 

Tierra Santa - "El Caballo de Troya" Guitar Tab

Plain Text Version
More Tierra Santa Tabs

Hits: 3017
Rated: 5.00 out of 5 (2 votes)
Updated: 2007-01-02 20:41:13

 

By:

naat

sendpm.gif

email.gif

Important note
We did our best to reach Tierra Santa and ask for their permission to publish this tab. Unfortunately they did not respond to our requests or we could not find a way to contact them. This tab is available online until Tierra Santa tells us to take it down.


#----------------------------------PLEASE NOTE---------------------------------#
#This file is the author's own work and represents their interpretation of the #
#song. You may only use this file for private study, scholarship, or research. #
#Unless specified otherwise, this is NOT an official tab from the band members.#
#------------------------------------------------------------------------------#

  Visit MetalTabs.com for more metal tablature
  
--------------------------------------------------------------------------
 Title:    | El Caballo De Troya
--------------------------------------------------------------------------
 Artist:   | Tierra Santa
 Album:    | Tierras De Leyenda
 Author:   | Tierra Santa
 Copyright:| 2000 LOCOMOTIVE MUSIC
 Tab:      | Nestor Arroliga Tellez [naat]
 E-mail:   | maiden_nat@yahoo.com
--------------------------------------------------------------------------

[Intro]: 2x

Guitar 1:
e|-------------------------------|--------------------------------|
B|-------------------------------|--------------------------------|
G|-------------------------------|--------------------------------|
D|-------------------------------|--------------------------------|
A|-0--0-0-3p0-0-0-5p0-0-0-7p-0-0-|-0--0-0-3p0-0-0-5p0-0-0-2p0-0-0-|
E|-------------------------------|--------------------------------|

Guitar 2:
e|-------------------------------|--------------------------------|
B|-------------------------------|--------------------------------|
G|-------------------------------|--------------------------------|
D|-2-----------------------------|-2------------------------------|
A|-0-----------------------------|-0----------------------------5-|
E|-------------------------------|------------------------------3-|


[Riff A]:

Both Guitars:
e|-------------------------------|--------------------------------|
B|-------------------------------|--------------------------------|
G|-------------------------------|--------------------------------|
D|-------------------------------|--------------------------------|
A|-0--0-0-3p0-0-0-5p0-0-0-7p-0-0-|-0--0-0-3p0-0-0-5p0-0-0-2p0-0-0-|
E|-------------------------------|--------------------------------|

Both Guitars:
e|-------------------------------|--------------------------------|
B|-------------------------------|--------------------------------|
G|-------------------------------|--------------------------------|
D|-------------------------------|--------------------------------|
A|-0--0-0-3p0-0-0-5p0-0-0-7p-0-0-|-0--0-0-3p0-0-0-5p0-0-0--3--5---|
E|-------------------------------|-------------------------1--3---|


[Verse Riff 1]: 2x

Both Guitars:
e|-------------------------------|-------------------------------|
B|-------------------------------|-------------------------------|
G|-------------------------------|-------------------------------|
D|-2-----------------------------|-------------------------------|
A|-0-0-0-0-0-0-0-0-0-0-0-0-0-0-0-|-3-----------------------------|
E|-------------------------------|-1-1-1-1-1-1-1-1-1-1-1-1-1-1-1-|
pm   ...........................     ...........................

Both Guitars:
e|-------------------------------|-------------------------------|
B|-------------------------------|-------------------------------|
G|-------------------------------|-------------------------------|
D|-5-----------------------------|-------------------------------|
A|-3-3-3-3-3-3-3-3-3-3-3-3-3-3-3-|-5-----------------------3--5--|
E|-------------------------------|-3-3-3-3-3-3-3-3-3-3-3-3-1--3--|
pm   ...........................     .....................


[Verse Riff 2]:

Both Guitars:
e|-------------------------------|-------------------------------|
B|-------------------------------|-------------------------------|
G|-------------------------------|-------------------------------|
D|-------------------------------|-------------------------------|
A|-3-----------------------------|-5-----------------------------|
E|-1-1-1-1-1-1-1-1-1-1-1-1-1-1-1-|-3-3-3-3-3-3-3-3-3-3-3-3-3-3-3-|
pm   ...........................     ...........................

Both Guitars:
e|-------------------------------|--------------------------------|
B|-------------------------------|--------------------------------|
G|-------------------------------|--------------------------------|
D|-------------------------------|--------------------------------|
A|-0--0-0-3p0-0-0-5p0-0-0-7p-0-0-|-0--0-0-3p0-0-0-5p0-0-0-2p0-0-0-|
E|-------------------------------|--------------------------------|

Both Guitars:
e|-------------------------------|-------------------------------|
B|-------------------------------|-------------------------------|
G|-------------------------------|-------------------------------|
D|-------------------------------|-------------------------------|
A|-3-----------------------------|-5-----------------------------|
E|-1-1-1-1-1-1-1-1-1-1-1-1-1-1-1-|-3-3-3-3-3-3-3-3-3-3-3-3-3-3-3-|
pm   ...........................     ...........................

Both Guitars:
e|-------------------------------|-------------------------------|
B|-------------------------------|-------------------------------|
G|-------------------------------|-------------------------------|
D|-------------------------------|-------------------------------|
A|-2-----------------------------|-2-----------------------3--5--|
E|-0-----------------------------|-0-----------------------1--3--|


[Verse Riff 1]

[Verse Riff 2]


[Chorus]:

Both Guitars:                    3x|
e|-------|-------|-------|---------|-------|-------|-------|-------------|
B|-------|-------|-------|---------|-------|-------|-------|-------------|
G|--2----|-------|-------|--5------|-------|-------|-------|-------------|
D|--2----|--3----|--5----|--5---5--|--3----|--5----|--2----|--(2)--------|
A|--0----|--3----|--5----|--3---5--|--3----|--5----|--2----|--(2)---3--5-|
E|-------|--1----|--3----|------3--|--1----|--3----|--0----|--(0)---1--3-|


[Riff B]: 4x

Both Guitars:
e|--------------------------------|--------------------------------|
B|--------------------------------|--------------------------------|
G|--------------------------------|--------------------------------|
D|--------------------------------|--------------------------------|
A|-0--0-0-8p0-0-0-10p0-0-0-7p-0-0-|-0--0-0-7p0-0-0-8p0-0-0-5p0-0-0-|
E|--------------------------------|--------------------------------|


[Solo]:

Guitar 1:
e|--8---8---|-------------------|---------------10-13------|-10-----------
B|--8b--8br-|----8~----------8~-|-10h13p10---10-------13br-|----13p10-----
G|----------|-10-----10p7h10----|---------12---------------|---------12---
D|----------|-------------------|--------------------------|--------------
A|----------|-------------------|--------------------------|--------------
E|----------|-------------------|--------------------------|--------------

Guitar 1:
e|----------------|--------------------|-----------------|----------------
B|-13p10----------|---------------8----|-----------------|-----8----------
G|------12p10-12~-|---------7-7b----7b-|--------------7\-|---9---9p7h9p7--
D|----------------|-10~--10------------|--10p7h10-7~-----|-7--------------
A|----------------|--------------------|-----------------|----------------
E|----------------|--------------------|-----------------|----------------

Guitar 1:
e|-------------------|------------------------------|-10b--10b--10--------
B|-------------------|------------------------------|--------------12-10b-
G|-------7-----------|------------------------------|---------------------
D|-10-10---10p7h10p7-|---7--------------------------|---------------------
A|-------------------|-10-10p7h10p7--7--------------|---------------------
E|-------------------|-------------10-10p8h10p8-\5~-|---------------------

Guitar 1: -           A.H.
e|--------|------------------|------------------|-------------------------
B|----10~-|-----------<8>-10-|-10~----------10~-|-10h13p10---10-13p10h13--
G|-12-----|----7-9-10--------|------12p9h12-----|---------12--------------
D|--------|-10---------------|------------------|-------------------------
A|--------|------------------|------------------|-------------------------
E|--------|------------------|------------------|-------------------------

Guitar 1:
e|-------------------------------------------|----------------------------
B|-10---10-13p10h13p10---10-13p10h13p10---10-|-13p10h13p10---10-13p10h13--
G|---12---------------12---------------12----|------------12--------------
D|-------------------------------------------|----------------------------
A|-------------------------------------------|----------------------------
E|-------------------------------------------|----------------------------

Guitar 1:
e|-----------------|----------------------10-|-------10-13--15b--15b-----|
B|-10--10-13b--13b-|-------10-13----10-13--/-|-10-13--/--/---------------|
G|---12------------|-10-12--/--/-12--/--/--/-|--/--/--/--/---------------|
D|-----------------|--/--/--/--/--/--/--/--/-|--/--/--/--/---------------|
A|-----------------|--/--/--/--/--/--/--/----|--/--/---------------------|
E|-----------------|--/--/--------/----------|---------------------------|


[Rhythm Under Solo]:

Guitar 2:
e|--------------------------------|--------------------------------|
B|--------------------------------|--------------------------------|
G|--------------------------------|--------------------------------|
D|-5------------------------------|--------------------------------|
A|-3--3-3-3-3-3-3-3-3-3-3-3-3-3-3-|-3-3-3-3-3-3-3-3-3-3-3-3-3-3-3--|
E|--------------------------------|--------------------------------|
pm    ...........................   .............................

Guitar 2:
e|--------------------------------|--------------------------------|
B|--------------------------------|--------------------------------|
G|--------------------------------|--------------------------------|
D|--------------------------------|--------------------------------|
A|-0--0-0-8p0-0-0-10p0-0-0-7p-0-0-|-0--0-0-7p0-0-0-8p0-0-0-5p0-0-0-|
E|--------------------------------|--------------------------------|

Guitar 2:
e|--------------------------------|--------------------------------|
B|--------------------------------|--------------------------------|
G|--------------------------------|--------------------------------|
D|-5------------------------------|--------------------------------|
A|-3--3-3-3-3-3-3-3-3-3-3-3-3-3-3-|-3-3-3-3-3-3-3-3-3-3-3-3-3-3-3--|
E|--------------------------------|--------------------------------|
pm    ...........................   .............................

Guitar 2:
e|--------------------------------|--------------------------------|
B|--------------------------------|--------------------------------|
G|--------------------------------|--------------------------------|
D|--------------------------------|--------------------------------|
A|-0--0-0-8p0-0-0-10p0-0-0-7p-0-0-|-0--0-0-7p0-0-0-8p0-0-0-5p0-0-0-|
E|--------------------------------|--------------------------------|

Guitar 2:
e|--------------------------------|--------------------------------|
B|--------------------------------|--------------------------------|
G|--------------------------------|--------------------------------|
D|-5------------------------------|-7------------------------------|
A|-3--3-3-3-3-3-3-3-3-3-3-3-3-3-3-|-5--5-5-5-5-5-5-5-5-5-5-5-5-5-5-|
E|--------------------------------|--------------------------------|
pm    ...........................      ...........................

Guitar 2:
e|--------------------------------|--------------------------------|
B|--------------------------------|--------------------------------|
G|--------------------------------|--------------------------------|
D|--------------------------------|--------------------------------|
A|-0--0-0-8p0-0-0-10p0-0-0-7p-0-0-|-0--0-0-7p0-0-0-8p0-0-0-5p0-0-0-|
E|--------------------------------|--------------------------------|

Guitar 2:
e|--------------------------------|--------------------------------|-----|
B|--------------------------------|--------------------------------|-----|
G|--------------------------------|--------------------------------|--9--|
D|-5------------------------------|-7------------------------------|--9--|
A|-3--3-3-3-3-3-3-3-3-3-3-3-3-3-3-|-5--5-5-5-5-5-5-5-5-5-5-5-5-5-5-|--7--|
E|--------------------------------|--------------------------------|-----|
pm    ...........................      ...........................


[Interlude]: 2x

Guitar 1:
e|-----------------------------------|-----------------------------------|
B|-----------------------------------|-----------------------------------|
G|---------------9--7----------------|-----------------------------------|
D|-7--7-7-10-9-7-----10-10-10-9-10-7-|-7-7-7-10-9-7------10-10-10-9-10-7-|
A|-----------------------------------|-------------10--8-----------------|
E|-----------------------------------|-----------------------------------|

Guitar 2:
e|-----------------------------------|-----------------------------------|
B|-----------------------------------|-----------------------------------|
G|-----------------------------------|-----------------------------------|
D|-2---------------------------------|-----------------------------------|
A|-0-0-0-0-0-0-0-0-0-0-0-0-0-0-0-0-0-|-0-0-0-0-0-0-0-0-0-0-0-0-0-0-0-0-0-|
E|-----------------------------------|-----------------------------------|
pm   ...............................   .................................

Guitar 1:
e|-----------------------------------|-----------------------------------|
B|-----------------------------------|-----------------------------------|
G|---------------9--7----------------|-----------------------------------|
D|-7--7-7-10-9-7-----10-10-10-9-10-7-|-7-7-7-10-9-7------10-10-10-9-10-7-|
A|-----------------------------------|-------------10--8-----------------|
E|-----------------------------------|-----------------------------------|

Guitar 2:
e|-----------------------------------|-----------------------------------|
B|-----------------------------------|-----------------------------------|
G|-----------------------------------|-----------------------------------|
D|-2---------------------------------|-----------------------------------|
A|-0-0-0-0-0-0-0-0-0-0-0-0-0-0-0-0-0-|-3---------------5-----------------|
E|-----------------------------------|-1-1-1-1-1-1-1-1-3-3-3-3-3-3-3-3-3-|
pm   ...............................     .............   ...............

On second time end with:

Guitar 1:
e|------|-------------|
B|------|-------------|
G|------|-------------|
D|-9~---|-(9)~--------|
A|------|-------3--5--|
E|------|-------1--3--|

Guitar 2:
e|------|-------------|
B|------|-------------|
G|------|-------------|
D|-2----|-(2)---------|
A|-2----|-(2)---3--5--|
E|-0----|-(0)---1--3--|


[Chorus]


[Outro]:

Both Guitars:                                                    3x|
e|--------------------------------|--------------------------------|
B|--------------------------------|--------------------------------|
G|--------------------------------|--------------------------------|
D|--------------------------------|--------------------------------|
A|-0--0-0-8p0-0-0-10p0-0-0-7p-0-0-|-0--0-0-7p0-0-0-8p0-0-0-5p0-0-0-|
E|--------------------------------|--------------------------------|

Both Guitars:
e|--------------------------------|--------------------------------|
B|--------------------------------|--------------------------------|
G|--------------------------------|--------------------------------|
D|--------------------------------|-----------------------2--------|
A|-0--0-0-8p0-0-0-10p0-0-0-7p-0-0-|-0--0-0-7p0-0-0--3--5--0--------|
E|--------------------------------|-----------------1--3-----------|


----------------------------------------------------------------------
Tablature Explanation
----------------------------------------------------------------------
 h   : hammer on    | b   : bend
 p   : pull off     | br  : bend - release
 /   : slide up     | t   : tapping
 \   : slide down   | tr  : trill
 \/  : dive         | x   : muted note
 ~   : Vibrato      | ()  : ghost note
 ~~~ : wide vibrato | <>  : harmonics
 pm..: palm mute    | /// : tremolo picking
----------------------------------------------------------------------

  Visit MetalTabs.com for more metal tablature

bottom separator

Contact Us | Privacy Policy | Disclaimer | Legal Notice
Copyright © 2001-2014 MetalTabs.com. All Rights Reserved.