top separator

Home

Forum

What's New

Submit a Tab

FAQ

Links

Contact Us

Link to Us

MetalTabs.com logo

Bands

0-9

A

B

C

D

E

F

G

H

I

J

K

L

M

N

O

P

Q

R

S

T

U

V

W

X

Y

Z

Search

What

Where
 

Tierra Santa - "Medieval" Guitar Tab

Plain Text Version
More Tierra Santa Tabs

Hits: 11497
Rated: 4.50 out of 5 (2 votes)
Updated: 2007-01-02 20:41:03

 

By:

naat

sendpm.gif

email.gif

Important note
We did our best to reach Tierra Santa and ask for their permission to publish this tab. Unfortunately they did not respond to our requests or we could not find a way to contact them. This tab is available online until Tierra Santa tells us to take it down.


#----------------------------------PLEASE NOTE---------------------------------#
#This file is the author's own work and represents their interpretation of the #
#song. You may only use this file for private study, scholarship, or research. #
#Unless specified otherwise, this is NOT an official tab from the band members.#
#------------------------------------------------------------------------------#

  Visit MetalTabs.com for more metal tablature
  
--------------------------------------------------------------------------
 Title:    | Medieval
--------------------------------------------------------------------------
 Artist:   | Tierra Santa
 Album:    | Medieval
 Author:   | Tierra Santa
 Copyright:| 1997, 1999 LOCOMOTIVE MUSIC
 Tab:      | Nestor Arroliga Tellez [naat]
 E-mail:   | maiden_nat@yahoo.com
--------------------------------------------------------------------------

[Intro]: 2x

Guitar 1 (clean):
e|-----------------|-----------------|-----------------|-----------------|
B|--1/3~------5-6--|-6---5--3--------|-----------------|-3h5--3--6--5----|
G|-----------------|--------------5--|--2~-------------|---------------5-|
D|-----------------|-----------------|-----------------|-----------------|
A|-----------------|-----------------|-----------------|-----------------|
E|-----------------|-----------------|-----------------|-----------------|

Guitar 2 (clean):
e|---------5-------|---------3-------|---------0-------|-----------------|
B|-------6---6-----|-------5---5-----|-------2---2-----|-------3-------5-|
G|-----7-------7---|-----5-------5---|-----2-------2---|-----3-------5---|
D|---7-----------7-|---5-----------5-|---2-----------2-|---3-------5-----|
A|-5---------------|-3---------------|-0---------------|-1-------3-------|
E|-----------------|-----------------|-----------------|-----------------|

Guitar 1 (clean):
e|-----------------|-----3---5h6-----|--5~-------------|-6p5h6-3---------|
B|--3---------5-6--|-6---------------|-----------------|---------6-5-3---|
G|-----------------|-----------------|-----------------|---------------5-|
D|-----------------|-----------------|-----------------|-----------------|
A|-----------------|-----------------|-----------------|-----------------|
E|-----------------|-----------------|-----------------|-----------------|

Guitar 2 (clean):
e|---------5-------|---------3-------|---------0-------|-----------------|
B|-------6---6-----|-------5---5-----|-------2---2-----|-------3-------5-|
G|-----7-------7---|-----5-------5---|-----2-------2---|-----3-------5---|
D|---7-----------7-|---5-----------5-|---2-----------2-|---3-------5-----|
A|-5---------------|-3---------------|-0---------------|-1-------3-------|
E|-----------------|-----------------|-----------------|-----------------|


[Verse Riff 1]: 2x

Guitar 1 (clean):
e|-----------------|-----------------|-----------------|-----------------|
B|--1/3~-----------|-----------------|-----------------|-----5------5----|
G|-----------------|-----------------|-----------------|--3------3-------|
D|-----------------|-----------------|-----------------|-----------------|
A|-----------------|-----------------|-----------------|-----------------|
E|-----------------|-----------------|-----------------|-----------------|

Guitar 2 (clean):
e|---------5-------|---------3-------|---------0-------|-----------------|
B|-------6---6-----|-------5---5-----|-------2---2-----|-------3-------5-|
G|-----7-------7---|-----5-------5---|-----2-------2---|-----3-------5---|
D|---7-----------7-|---5-----------5-|---2-----------2-|---3-------5-----|
A|-5---------------|-3---------------|-0---------------|-1-------3-------|
E|-----------------|-----------------|-----------------|-----------------|

Guitar 1 (clean):
e|-----------------|-----------------|-----------------|-----------------|
B|--1/3~-----------|-----------------|-----------------|-3h5--3--6--5----|
G|-----------------|-----------------|-----------------|---------------5-|
D|-----------------|-----------------|-----------------|-----------------|
A|-----------------|-----------------|-----------------|-----------------|
E|-----------------|-----------------|-----------------|-----------------|

Guitar 2 (clean):
e|---------5-------|---------3-------|---------0-------|-----------------|
B|-------6---6-----|-------5---5-----|-------2---2-----|-------3-------5-|
G|-----7-------7---|-----5-------5---|-----2-------2---|-----3-------5---|
D|---7-----------7-|---5-----------5-|---2-----------2-|---3-------5-----|
A|-5---------------|-3---------------|-0---------------|-1-------3-------|
E|-----------------|-----------------|-----------------|-----------------|


[Riff A]:

Guitar 1:            |1. & 2.          |3. & 4.
e|-------------------|-----------------|------------|
B|--------------6--5-|-----------------|-6---6-5~---|
G|-5h7---5-7~--------|-5--5------------|------------|
D|-------------------|-------7~--------|------------|
A|-------------------|-----------------|------------|
E|-------------------|-----------------|------------|

Guitar 2:                |1. - 3.                   |4.
e|-----------------------|--------------------------|------------|
B|-----------------------|--------------------------|------------|
G|-----------------------|--------------------------|------------|
D|-7-----5-7-----7-----7-|-3-----3-5----0-2-3p2-0---|-3-----3-5--|
A|-5-5-5-3-5-5-5-5-5-5-5-|-1-1-1-1-3--3-----------3-|-1-1-1-1-3--|
E|-----------------------|--------------------------|------------|
pm   ...     ...   ...       ...                        ...


[Verse Riff 2]: 2x

Both Guitars:         3x|
e|----------------------|----------------------|
B|----------------------|----------------------|
G|----------------------|----------------------|
D|-7-------7-------7-5--|-3-----------------2--|
A|-5-5-5-5-5-5-5-5-5-3--|-1-1-1-1-5-------5-0--|
E|----------------------|---------3-3-3-3-3----|
pm   ...     ...            ...     ...


[Bridge]:

Both Guitars:            |1.                   |2.
e|-----------------------|---------------------|------------------|
B|-----------------------|---------------------|------------------|
G|-----------------------|---------------------|------------------|
D|-3-------3-------3-----|-2-------2-------2---|-2-------2--3--5--|
A|-1-1-1-1-1-1-1-1-1-1-1-|-0-0-0-0-0-0-0-0-0---|-0-0-0-0-0--1--3--|
E|-----------------------|-------------------3-|------------------|
pm   ...     ...     ...     ...     ...           ...


[Chorus]:

Guitar 1:            |1. & 2.          |3. & 4.
e|-------------------|-----------------|------------|
B|--------------6--5-|-----------------|-6---6-5~---|
G|-5h7---5-7~--------|-5--5------------|------------|
D|-------------------|-------7~--------|------------|
A|-------------------|-----------------|------------|
E|-------------------|-----------------|------------|

Guitar 2:                |1. - 3.                   |4.
e|-----------------------|--------------------------|------------|
B|-----------------------|--------------------------|------------|
G|-----------------------|--------------------------|------------|
D|-7-----5-7-----7-----7-|-3-----3-5----0-2-3p2-0---|-3-----3-5--|
A|-5-5-5-3-5-5-5-5-5-5-5-|-1-1-1-1-3--3-----------3-|-1-1-1-1-3--|
E|-----------------------|--------------------------|------------|
pm   ...     ...   ...       ...                        ...


[Interlude 1]: 2x

Guitar 1:
e|---------------------------------|---------------8----------------|
B|-----------10--11-10-8-----------|-----------10-----11-10-8-------|
G|-7--7-9-10-------------10-9------|-7--7-9-10----------------------|
D|----------------------------7-10-|--------------------------7-10--|
A|---------------------------------|--------------------------------|
E|---------------------------------|--------------------------------|

Guitar 2:
e|----------------------|----------------------|
B|----------------------|----------------------|
G|----------------------|----------------------|
D|-7-------7-------7-5--|-7-------7-------7-5--|
A|-5-5-5-5-5-5-5-5-5-3--|-5-5-5-5-5-5-5-5-5-3--|
E|----------------------|----------------------|
pm   ...     ...            ...     ...

Guitar 1:
e|---------------------------------|-------------------------------------|
B|-----------10--11-10-8-----------|------------------8-10-8-------------|
G|-7--7-9-10-------------10-9------|-7----7-9-10-9-10--------10-9-7------|
D|----------------------------7-10-|---10---------------------------7-10-|
A|---------------------------------|-------------------------------------|
E|---------------------------------|-------------------------------------|

Guitar 2:
e|----------------------|----------------------|
B|----------------------|----------------------|
G|----------------------|----------------------|
D|-7-------7-------7-5--|----------------------|
A|-5-5-5-5-5-5-5-5-5-3--|-1-1-1-1-5-------5-0--|
E|----------------------|---------3-3-3-3-3----|
pm   ...     ...            ...     ...


[Verse Riff 3]: 2x

Both Guitars:
e|----------|----------|----------|-------------|
B|----------|----------|----------|-------------|
G|----------|----------|----------|-------------|
D|--7-7-----|--7-7-----|--7-7-----|--5---3---2--|
A|--5-5-----|--5-5-----|--5-5-----|--3---1---0--|
E|----------|----------|----------|-------------|


[Riff B]: 2x

Both Guitars:
e|------------------------|-------------------------|
B|------------------------|-------------------------|
G|------------------------|-------------------------|
D|------------------5-----|-------------------------|
A|-5--5-8-5-5-7-------8p7-|-5-5-5-8-5-5-7-----8p7---|
E|--------------8-8-------|---------------6-6-----8-|
pm              ...         .....         ...

Both Guitars:
e|------------------------|-------------------------|
B|------------------------|-------------------------|
G|------------------------|-------------------------|
D|------------------5-----|-------------------------|
A|-5--5-8-5-5-7-------8p7-|-------7p5---------8p7---|
E|--------------8-8-------|-5-5-5-----8-6-6-6-----8-|
pm              ...         .....       .....


[Solo]:

Guitar 1:
e|---------------------------------------------|--------------------------
B|-10b--12h13p10-12--10------------------------|-------------10-12-10-12--
G|-----------------12--10h12-9-10---9-------9~-|----10---9-12-------------
D|-------------------------------12---10h12----|------12------------------
A|---------------------------------------------|-12-----------------------
E|---------------------------------------------|--------------------------

Guitar 1:                            S.H.
e|-------------------------|-----10b-<12>~---------------------|----------
B|-13-12-10---------10-12~-|-13b-------------------------------|----------
G|----------13~--13--------|------------------10p9-7-10h9-7-9~-|-10p9-----
D|-------------------------|-----------------------------------|------12--
A|-------------------------|-----------------------------------|----------
E|-------------------------|-----------------------------------|----------

Guitar 1:
e|----------------------------8--------------------------------|----------
B|---------10--10-11p10h11-10---11-10p8h10-8-10--8-------------|----------
G|-10-12-10--12--------------------------------10-10-9--10p9---|----------
D|----------------------------------------------------12----12-|--12------
A|-------------------------------------------------------------|----------
E|-------------------------------------------------------------|----------

Guitar 1:                        S.H.
e|------------------------------------|-----------------------------------
B|------------------------------------|-----------------------------------
G|-8p7--------------------------------|--------7-9p7----------------------
D|-----10p8-7-------------------------|-7-9-10-------10-9p7-------------7-
A|-----------10p8---7---8h10-7---<5>~-|---------------------10-9p7h9-10---
E|---------------10--10--------8------|-----------------------------------

Guitar 1: N.H.
e|--------------|----------------------------------------------|----------
B|--------------|----------------------------------------------|----------
G|--------------|-------------------------------------------5~-|----7h8p7-
D|--------------|-------------------3p1h3-5-3-5-6p5h6-8p6h8----|-10-------
A|-10p8-7-<10>--|-3-1-3-5p3h5-6-5-6----------------------------|----------
E|--------------|----------------------------------------------|----------

Guitar 1:
e|--------------------------------------|
B|------8----9p8h9-8-11-9p8----8h9------|
G|-10-8---10----------------10-----10~--|
D|--------------------------------------|
A|--------------------------------------|
E|--------------------------------------|


[Rhythm Under Solo]:

Guitar 2:                            2x|
e|-------------------------------------|--------|
B|-------------------------------------|--------|
G|-------------------------------------|--------|
D|-------------------------------------|--------|
A|-7-7-7-7-7-7-7-7-7-7-7-7-7-7-7-7-7-7-|-9--10--|
E|-------------------------------------|-7---8--|
pm ...................................

Guitar 2:                            2x|
e|-------------------------------------|--------|
B|-------------------------------------|--------|
G|-------------------------------------|--------|
D|-------------------------------------|--------|
A|-7-7-7-7-7-7-7-7-7-7-7-7-7-7-7-7-7-7-|-9--10--|
E|-------------------------------------|-7---8--|
pm ...................................

Guitar 2:                            4x|
e|-------------------------------------|--------|
B|-------------------------------------|--------|
G|-------------------------------------|--------|
D|-------------------------------------|--------|
A|-3-3-3-3-3-3-3-3-3-3-3-3-3-3-3-3-3-3-|-5--6---|
E|-------------------------------------|-3--4---|
pm ...................................


[Interlude 1]

[Bridge]

[Chorus]


[Interlude 2]: 2x

Guitar 1:
e|---------------------------|---------------------------|
B|-6-5--------5-6-5--------5-|-6-5-8~--6-5---------------|
G|-----7--5-7-------7--5-7---|-------------7-5-----------|
D|---------------------------|-----------------7---------|
A|---------------------------|---------------------------|
E|---------------------------|---------------------------|

Guitar 2:
e|---------------------------|---------------------------|
B|---------------------------|---------------------------|
G|---------------------------|---------------------------|
D|-7---7--------7---7--------|-5---5--------2---2--------|
A|-5-5-5--5-5-5-5-5-5--5-5-5-|-3-3-3--3-3-3-0-0-0--0-0-0-|
E|---------------------------|---------------------------|
pm  ...   .....  ...   .....    ...   .....  ...   .....

Guitar 1:
e|---------------------------|-----------------5~--------|
B|-6-5--------5-6-5--------5-|-6-5-8~--6-5---------------|
G|-----7--5-7-------7--5-7---|-------------7-5-----------|
D|---------------------------|---------------------------|
A|---------------------------|---------------------------|
E|---------------------------|---------------------------|

Guitar 2:
e|---------------------------|---------------------------|
B|---------------------------|---------------------------|
G|---------------------------|-5---5---------------------|
D|-7---7--------7---7--------|-3-3-3--3-3-3-2---2--------|
A|-5-5-5--5-5-5-5-5-5--5-5-5-|--------------0-0-0--0-0-0-|
E|---------------------------|---------------------------|
pm  ...   .....  ...   .....    ...   ....   ...   .....


[Outro]:

Guitar 1:                        2x|                               2x|
e|---------------------------------|---------------------------------|
B|-------5-6-----5-6-----5-6p5-----|-------3-5-----3-5-----3-5p3-----|
G|-7---7-------7-------7-------7-5-|-5---5-------5-------5-------5-2-|
D|---7-------7-------7-------------|---5-------5-------5-------------|
A|---------------------------------|---------------------------------|
E|---------------------------------|---------------------------------|

Guitar 2:
e|-10~-----------------------------|-8~------------------------------|
B|---------------------------------|---------------------------------|
G|---------------------------------|---------------------------------|
D|---------------------------------|---------------------------------|
A|---------------------------------|---------------------------------|
E|---------------------------------|---------------------------------|

Guitar 3 plays D5 (let ring for each bar)

Then repeat above riffs twice with a variation on the second bar...

Guitar 1:
e|-------3-5-----3-5-----3-5p3-----|---------------------------------|
B|-6---6-------6-------6-------6-5-|-------3-5-----3-5-----3-5p3-----|
G|---5-------5-------5-------------|-5---5-------5-------5-------5-2-|
D|---------------------------------|---5-------5-------5-------------|
A|---------------------------------|---------------------------------|
E|---------------------------------|---------------------------------|

Guitar 2:
e|--------7-8-----7-8------7-8p7------|-8~---------------------------|
B|-10--10-------10------10-------10-8-|------------------------------|
G|---10-------10------10--------------|------------------------------|
D|------------------------------------|------------------------------|
A|------------------------------------|------------------------------|
E|------------------------------------|------------------------------|

Finally both guitars end with D5.


----------------------------------------------------------------------
Tablature Explanation
----------------------------------------------------------------------
 h   : hammer on    | b   : bend
 p   : pull off     | br  : bend - release
 /   : slide up     | t   : tapping
 \   : slide down   | tr  : trill
 \/  : dive         | x   : muted note
 ~   : Vibrato      | ()  : ghost note
 ~~~ : wide vibrato | <>  : harmonics
 pm..: palm mute    | /// : tremolo picking
----------------------------------------------------------------------

  Visit MetalTabs.com for more metal tablature

bottom separator

Contact Us | Privacy Policy | Disclaimer | Legal Notice
Copyright © 2001-2014 MetalTabs.com. All Rights Reserved.