top separator

Home

Forum

What's New

Submit a Tab

FAQ

Links

Contact Us

Link to Us

MuSpy.com

MetalTabs.com logo

Bands

0-9

A

B

C

D

E

F

G

H

I

J

K

L

M

N

O

P

Q

R

S

T

U

V

W

X

Y

Z

Search

What

Where
 

Napalm Death - "The World Keeps Turning" Guitar Tab

Plain Text Version
More Napalm Death Tabs

Hits: 2711
Updated: 2007-01-02 20:15:11

 

By:

goatman

sendpm.gif

email.gif

Important note
This tab is available online because we obtained explicit permission from Napalm Death or their label.


#----------------------------------PLEASE NOTE---------------------------------#
#This file is the author's own work and represents their interpretation of the #
#song. You may only use this file for private study, scholarship, or research. #
#Unless specified otherwise, this is NOT an official tab from the band members.#
#------------------------------------------------------------------------------#

  Visit MetalTabs.com for more metal tablature
  
Band:  (NAPALM DEATH)
Album: (UTOPIA BANISHED)
Song:  (THE WORLD KEEPS TURNING)

Copyright (c)  (EARACHE) (1992)

Transcribed By: (GOATMAN)
Email:          (VIRUS010891@AOL.COM)


. -palm mute
" -tremolo
h -hammer on

Tuning: D G C F A D

|--------------------------------------------------------------------
|.-------------------------------------------------------------------
|--------------------------------------------------------------------
|--------------------------------------------------------------------
|.-8-7----------------------8-7----------------------8-7-------------
|--6-5-00000000000000000000-6-5-00000000000000000000-6-5-000000000000
       ....................     ....................     ............
                                                    x2                   x4
-----------------------------------------------------|--------------------|
----------------------------------------------------.|.------------------.|
-----------------------------------------------------|--------------------|
------------------------------3----------------------|--------------------|
----------8-7------3-5------3-1---------------------.|.-11--10---9-9-9-8-.|
-00000000-6-5-0000-1-3-0000-1---00000000000000000000-|-0-9-0-8-0-7-7-7-6--|
 ........     ....     ....     ....................   .   .   .
                                                                     x2
|---------------------------------------------------------------------|
|.-------------------------------------------------------------------.|
|---------------------------------------------------------------------|
|----------------6----------------4----------------6----------3---4-3-|
|.-------------5-4--------------3-2--------------5-4----------1---2-1.|
|-000000000000-3---000000000000-1---000000000000-3---00000000---0-----|
  ............     ............     ............     ........   .
                    x4                                   x4
|--------------------|------------------------------------|-----------------
|.------------------.|.----------------------------------.|-----------------
|--------------------|------------------------------------|-----------------
|--------------------|---------------------6---5---4-3----|-----------------
|.-11--10---9-9-9-8-.|.-3----------------5-4-4-3-4-2-1-4-.|-3---------------
|-0-9-0-8-0-7-7-7-6--|--1-00000000000000-3---2---2-----2--|-1-00000000000000
  .   .   .               ..............                      ..............
                   x4                                   x4
|-------------------|------------------------------------|------------------
|.-----------------.|.----------------------------------.|------------------
|-------------------|------------------------------------|------------------
|-------------------|---------------------6---5---4-3----|------------------
|.-----------------.|.-3----------------5-4-4-3-4-2-1-4-.|-3----------------
|--3"-(1)"-3"-4"-7"-|--1-00000000000000-3---2---2-----2--|-1-00000000000000-
                         ..............                      ..............
                   x4                   x4
|-------------------|--------------------|---------------------------------
|.-----------------.|.------------------.|.--------------------------------
|-------------------|--------------------|---------------------------------
|-------------------|--------------------|---------------------------------
|.-----------------.|.-11--10---9-9-9-8-.|.-----9------8-3-----------------
|--3"-(1)"-3"-4"-7"-|-0-9-0-8-0-7-7-7-6--|-0000-7-0000-6-1-00000000000000--
                      .   .   .            ....   ....     ..............
                 x3
------------------|---------------------------------------------------------
-----------------.|.--------------------------------------------------------
------------------|---------------------------------------------------------
------------------|---------------------------------------------------------
-----------------.|.--------------------------------------------------------
-0000000000000000-|-33444444444444443344444444444444112222222222222211222222
 ................   ........................................................
         x2                                               x2
----------|------------------------------------------------|------------------
---------.|.----------------------------------------------.|.-----------------
----------|------------------------------------------------|------------------
----------|------------------------------------------------|------------------
---------.|.-----9------8---------------------------------.|.----8"-----------
-22222222-|-0000-7-0000-6-00000000000000000000000000000000-|-(5)"--6"--(5)"---
 ........   ....   ....   ................................
                x2
-----------------|--------------------------------------------------------------
----------------.|.-------------------------------------------------------------
-----------------|--------------------------------------------------------------
-----------------|--------------------------------------------------------------
-----6"---------.|.5h7-----5h7-----5h7-----5h7-----5h7-----5h7-----5h7----5h7---
-(3)"--4"--(3)"--|-----5-5-----5-5-----5-5-----5-5-----5-5-----5-5-----5-5---5-5
                       . .     . .     . .     . .     . .     . .     . .   . .
                                                          x2
-----------------------------------------------------------|---------------
----------------------------------------------------------.|.--------------
-----------------------------------------------------------|---------------
-----------------------------------------------------------|---------------
-3h5-----3h5----3h5----3h5----3h5----3h5----3h5----3h5----.|.----8"--------
-----3-3-----3-3----3-3----3-3----3-3----3-3----3-3----3-3-|-(5)"--6"--(5)"
     . .     . .    . .    . .    . .    . .    . .    . .
               x2
----------------|---------------------------------------------------
---------------.|---------------------------------------------------
----------------|---------------------------------------------------
----------------|---------------------------------------------------
-----6"--------.|-8-7----------------------8-7----------------------
-(3)"--4"--(3)"-|-6-5-00000000000000000000-6-5-00000000000000000000-
                      ....................     ....................

--------------------------------------------------------------------
--------------------------------------------------------------------
--------------------------------------------------------------------
----------------------------------------------3---------------------
-8-7----------------------8-7------3-5------3-1---------------------
-6-5-00000000000000000000-6-5-0000-1-3-0000-1---00000000000000000000
     ....................     ....     ....     ....................

----------------------------------------------------------------------------
----------------------------------------------------------------------------
----------------------------------------------------------------------------
----------------------------------------------------------------------------
-8-7----------------------8-7----------------------8-7----------------------
-6-5-00000000000000000000-6-5-00000000000000000000-6-5-00000000000000000000-
     ....................     ....................     ....................

------------------------
------------------------
------------------------
---------------------5--
-8-7------3-5------3-3--
-6-5-0000-1-3-0000-1----
     ....     ....

  Visit MetalTabs.com for more metal tablature

bottom separator

Contact Us | Privacy Policy | Disclaimer | Legal Notice
Copyright © 2001-2014 MetalTabs.com. All Rights Reserved.