top separator

Home

Forum

What's New

Submit a Tab

FAQ

Links

Contact Us

Link to Us

MuSpy.com

MetalTabs.com logo

Bands

0-9

A

B

C

D

E

F

G

H

I

J

K

L

M

N

O

P

Q

R

S

T

U

V

W

X

Y

Z

Search

What

Where
 

Napalm Death - "Silence Is Deafening" Guitar Tab

Plain Text Version
More Napalm Death Tabs

Hits: 5300
Rated: 5.00 out of 5 (1 vote)
Updated: 2007-01-02 20:14:52

 

By:

goatman

sendpm.gif

email.gif

Important note
This tab is available online because we obtained explicit permission from Napalm Death or their label.


#----------------------------------PLEASE NOTE---------------------------------#
#This file is the author's own work and represents their interpretation of the #
#song. You may only use this file for private study, scholarship, or research. #
#Unless specified otherwise, this is NOT an official tab from the band members.#
#------------------------------------------------------------------------------#

  Visit MetalTabs.com for more metal tablature
  
Band:  (NAPALM DEATH)
Album: (THE CODE IS RED...LONG LIVE THE CODE)
Song:  (THE SILENCE IS DEAFENING)

Copyright (c)  (CENTURY MEDIA) (2005)

Transcribed By: (GOATMAN)
Email:          (VIRUS@AOL.COM)


. -palm mute
" -tremolo
() -sustained note/chord
 ~ -vibrato
tr -trill
\ -slide up to

Tuning: D G C G A D
                                                 x6
|-------------------------------------------------|------------------
|.-----------------------------------------------.|.-----------------
|-------------------------------------------------|------------------
|------------------7---------------------8-5-5-5--|--7---------------
|.-4-4---4-4---4-7-5-9-6-4-4---4-4---4-7-6-3-3-3-.|.-5-8-8-8-8-8-8-8-
|--2-2-0-2-2-0-2-5---7-4-2-2-0-2-2-0-2-5----------|----6-6-6-6-6-6-6-

                                        x2
-----------------------------------------|---------------------------
----------------------------------------.|.--------------------------
-----------------------------------------|---------------------------
-9-5-5-5-5-5-5-5-------------------------|------------------7--------
-7-3-3-3-3-3-3-3--7--7--(9)"-7--7--(9)"-.|.-4-4---4-4---4-7-5-9-6----
------------------5--5-------5--5--------|--2-2-0-2-2-0-2-5---7-4----

                         x4
--------------------------|------------------------------------------
-------------------------.|.-----------------------------------------
--------------------------|------------------------------------------
-----------------8-5-5-5--|--7---------------9-5-5-5-5-5-5-5---------
-4-4---4-4---4-7-6-3-3-3-.|.-5-8-8-8-8-8-8-8-7-3-3-3-3-3-3-3-7--7-(9)"
-2-2-0-2-2-0-2-5----------|----6-6-6-6-6-6-6-----------------5--5----

           x4                          x2
------------|---------------------------|------------------------------
-----------.|.-------------------------.|.-----------------------------
------------|---------------------------|------------------------------
------------|--9-8\9-(8)-9-8\9-(8)-(5)--|--9--8-9--8--5--8--9-(11)-----
-7--7-(9)"-.|.-7-6\7-(6)-7-6\7-(6)-(3)-.|.-7--6-7--6--3--6--7--(9)-----
-5--5-------|---------------------------|------------------------------

                               x4
--------------------------------|-------------------------------------
-------------------------------.|.------------------------------------
--------------------------------|-------------------------------------
-12--11-12--11--8--11--12-(14)--|-------------------------------------
-10---9-10---9--6---9--10-(12)-.|.11-11-11-11-11-11-8-8--8--12-12--12-
--------------------------------|--9--9--9--9--9--9-6-6--6--10-10--10-


----------------------------------------------------------------------
----------------------------------------------------------------------
----------------------------------------------------------------------
----------------------------------------------------------------------
-2--2--2--2--2--2-5-5--5--8-8--8-11-11-11-11-11-11-8-8--8--12-12--12--
-0--0--0--0--0--0-3-3--3--6-6--6--9--9--9--9--9--9-6-6--6--10-10--10--

                         x2
--------------------------|--------------------------------------------
-------------------------.|.-------------------------------------------
--------------------------|--------------------------------------------
--------------------------|--9--8-9--8--5--8--9-(11)-12-11-12-11--8----
-------------------------.|.-7--6-7--6--3--6--7--(9)-10--9-10--9--6----
-12-10-12-13-12-10-(12)~--|--------------------------------------------

            x4
-------------|--------------------------------------------------------------
------------.|.-------------------------------------------------------------
-------------|--------------------------------------------------------------
-11-12-(14)--|--------------------------------------------------------------
--9-10-(12)-.|.11-11-11-11-11-11-8-8--8--12-12--12--2--2--2--2--2--2-5-5--5-
-------------|--9--9--9--9--9--9-6-6--6--10-10--10--0--0--0--0--0--0-3-3--3-

                                                                 x2
------------------------------------------------------------------|----------
-----------------------------------------------------------------.|----------
------------------------------------------------------------------|----------
------------------------------------------------------------------|----------
-8-8--8-11-11-11-11-11-11-8-8--12-12--12-------------------------.|-(2)------
-6-6--6--9--9--9--9--9--9-6-6--10-10--10-12-10-12-13-12-10-(12)~--|-(0)------
                                         +skip this second time+

-------------------------------------------------------------------------------
-------------------------------------------------------------------------------
-------------------------------------------------------------------------------
--------------------9/(3)-8/(2)-9/(3)------------------------------------------
----------------(2)-7/(1)-6/(0)-7/(1)--------(7tr8)(2)-(10)-(13)---------------
-0-0-3-2-(5tr6)-(0)-------------------0-0-3-2------(0)----------0-0-3-2-(5tr6)-


------------------------------------------------------|------------------------
------------------------------------------------------|.-----------------------
------------------------------------------------------|------------------------
-(9)-9/(3)-8/(2)-9/(3)--------------------------------|------------------------
-(7)-7/(1)-6/(0)-7/(1)---------(7tr8)(2)-(10)-(13)----|.-2----------2----------
-(0)-------------------0-0-3-2-------(0)----------15/-|--0-0-0-(6)~-0-0-0-(9)~-
                                                           . .        . .
                 x8
------------------|
-----------------.|
------------------|
------------------|
-2-----8-11-8-5--.|
-0-0-0-6--9-6-3---|
   . .

  Visit MetalTabs.com for more metal tablature

bottom separator

Contact Us | Privacy Policy | Disclaimer | Legal Notice
Copyright © 2001-2014 MetalTabs.com. All Rights Reserved.