top separator

Home

Forum

What's New

Submit a Tab

FAQ

Links

Contact Us

Link to Us

MetalTabs.com logo

Bands

0-9

A

B

C

D

E

F

G

H

I

J

K

L

M

N

O

P

Q

R

S

T

U

V

W

X

Y

Z

Search

What

Where
 

Severe Torture - "Twist The Cross" Guitar Tab

Plain Text Version
More Severe Torture Tabs

Hits: 1727
Updated: 2007-01-02 20:12:46

 

By:

goatman

sendpm.gif

email.gif

Important note
This tab is available online because we obtained explicit permission from Severe Torture or their label.


#----------------------------------PLEASE NOTE---------------------------------#
#This file is the author's own work and represents their interpretation of the #
#song. You may only use this file for private study, scholarship, or research. #
#Unless specified otherwise, this is NOT an official tab from the band members.#
#------------------------------------------------------------------------------#

  Visit MetalTabs.com for more metal tablature
  
Band:  (SEVERE TORTURE)
Album: (FEASTING ON BLOOD)
Song:  (TWIST THE CROSS)

Copyright (c)  (THE PLAGUE/HAMMERHEART) (2000)


Transcribed By: (GOATMAN)
Email:          (VIRUS@AOL.COM)


" -tremolo note
. -palm mute
() -sustained note/chord

Tuning D G C F A D
                                                  x6
|--------------------------------------------------|--------------------------
|.------------------------------------------------.|--------------------------
|--------------------------------------------------|--------------------------
|--------------------------------------------------|--------------------------
|.-------------------------------------8-----7----.|-8-----7-----8-----7------
|--1"-0"-4"-0"-1"-0"-3"-0"-1"-0"-4"-0"---7-6---5-4-|---7-6---5-4---7-6---5-4--
                                         . .   . .     . .   . .   . .   . .
                                                                   x2
|-------------------------------------------------------------------|
|.-----------------------------------------------------------------.|
|-------------------------------------------------------------------|
|-------------------------------------------------------------------|
|.-4"------------4"------------3"------------3"--------------------.|
|----0-1-0-3-0-3---0-1-0-3-0-3---0-1-0-3-0-3---0-1-0-3-0-3----------|
     . . . . . .   . . . . . .   . . . . . .   . . . . . .
                                                                   x2
|-------------------------------------------------------------------|
|.------------------------------------------------------------------|
|-------------------------------------------------------------------|
|--6"------------6"------------5"------------5"---------------------|
|.-4"------------4"------------3"------------3"---------------------|
|----0-1-0-3-0-3---0-1-0-3-0-3---0-1-0-3-0-3---0-1-0-3-0-3----------|
     . . . . . .   . . . . . .   . . . . . .   . . . . . .
                              x8
-------------|-----------------|--------------------------------------
-------------|.---------------.|.-------------------------------------
-------------|-----------------|--------------------------------------
-6-2-5-------|-----------------|--------------------------------------
-4-0-3-------|.-4"-0"-3"------.|.-4"------------4"--------------------
-4---3-0-3-0-|----------0-3-0--|----0-1-0-3-0-3---0-1-0-3-0-3---------
       . . .            . . .       . . . . . .   . . . . . .
                             x2
------------------------------|----------------------------------------
-----------------------------.|.---------------------------------------
------------------------------|----------------------------------------
------------------------------|--6"------------6"----------------------
-3"------------3"------------.|.-4"------------4"----------------------
---0-1-0-3-0-3---0-1-0-3-0-3--|----0-1-0-3-0-3---0-1-0-3-0-3-----------
   . . . . . .   . . . . . .       . . . . . .   . . . . . .
                             x2                x2                    x4
------------------------------|-----------------|---------------------|
-----------------------------.|.---------------.|.-------------------.|
------------------------------|-----------------|---------------------|
-5"------------5"-------------|-----------------|--6"----3"-3"-5"-3"--|
-3"------------3"------------.|.-4"----1"------.|.-4"-5"-1"-1"-3"-1"-.|
---0-1-0-3-0-3---0-1-0-3-0-3--|-----3"---0-3-0--|-----3"--------------|
   . . . . . .   . . . . . .             . . .
                       x8
|-----------------------|----------------------------------------------
|.---------------------.|----------------------------------------------
|-----------------------|-.--------------------------------------------
|--(5)-9-8---(6)-9-8----|-5--------------------------------------------
|.-(3)-7-6---(4)-7-6---.|-3-7"6"----7"6"----7"6"-----------------------
|--(3)-7-6-0-(4)-7-6-0--|-3-----3"4"----3"4"----3"6"3"8"3"-------------
           .         .
                                   x7
|-----------------------------------|----------------------------------
|.---------------------------------.|----------------------------------
|-----------------------------------|----------------------------------
|-----------------------------------|----------------------------------
|.--7"6"----7"6"----7"6"-----------.|-4"------------4"-----------------
|-4"----3"4"----3"4"----3"6"3"8"3"--|---0-1-0-3-0-3---0-1-0-3-0-3------
                                        . . . . . .   . . . . . .
                              x2
-------------------------------|----------------------------------------
------------------------------.|.---------------------------------------
-------------------------------|----------------------------------------
-------------------------------|--6"------------6"----------------------
-3"------------3"-------------.|.-4"------------4"----------------------
---0-1-0-3-0-3----0-1-0-3-0-3--|----0-1-0-3-0-3----0-1-0-3-0-3----------
   . . . . . .    . . . . . .       . . . . . .    . . . . . .
                            x2                                              x4
-----------------------------|-----------------------------------------------|
----------------------------.|.---------------------------------------------.|
-----------------------------|-----------------------------------------------|
-5"------------5"------------|-----------------------------------------------|
-3"------------3"-----------.|.-----------------------------------8----7----.|
---0-1-0-3-0-3---0-1-0-3-0-3-|-1"-0"-4"-0"-1"-0"-3"-0"-1"-0"-4"-0"--7-6--5-4-|
   . . . . . .   . . . . . .                                        . .  . .

  Visit MetalTabs.com for more metal tablature

bottom separator

Contact Us | Privacy Policy | Disclaimer | Legal Notice
Copyright © 2001-2014 MetalTabs.com. All Rights Reserved.