top separator

Home

Forum

What's New

Submit a Tab

FAQ

Links

Contact Us

Link to Us

MetalTabs.com logo

Bands

0-9

A

B

C

D

E

F

G

H

I

J

K

L

M

N

O

P

Q

R

S

T

U

V

W

X

Y

Z

Search

What

Where
 

Kult ov Azazel - "The World Is Full Of Violence" Guitar Tab

Plain Text Version
More Kult ov Azazel Tabs

Hits: 1880
Rated: 3.00 out of 5 (1 vote)
Updated: 2007-01-02 20:06:01

 

By:

sendpm.gif

email.gif

Important note
This tab is available online because we obtained explicit permission from Kult ov Azazel or their label.


#----------------------------------PLEASE NOTE---------------------------------#
#This file is the author's own work and represents their interpretation of the #
#song. You may only use this file for private study, scholarship, or research. #
#Unless specified otherwise, this is NOT an official tab from the band members.#
#------------------------------------------------------------------------------#

  Visit MetalTabs.com for more metal tablature
  
Band: Kult Ov Azazel
Album: The World, The Flesh and The Devil
Song: The World is Full of Violence


Transcribed By Alnihilation
Tunning D G C F A D


. = palm mute
p = pull off
h = hammer on
b = bend
/ = slide


Intro      x 4                x4
|--------------------|---------------------|
|--------------------|---------------------|
|--------------------|--10-9-10-7-10-9-5---|
|--10-9-10-7-10-9-5--|---0-0--0-0--0-0-7---|
|---0-0--0-0--0-0-7--|---------------------|
|--------------------|---------------------|


Riff 2 x 6
|-------------------------------|
|-------------------------------|
|-------------------------------|
|--5---4-5---4-7----8--7-4------|
|--7---5-7---5-9---10--9-5------|
|-------------------------------|


Riff 3 x 4
|----------------------------|
|----------------------------|
|--9----7--6--4--------------|
|--9----7--6--4--------------|
|--7----5--8--6--------------|
|----------------------------|

Riff 4 x 4                         End 1 x 3  End 2 x 1
|---------------------------------|---------|--------------|
|---------------------------------|---------|--------------|
|---------------------------------|---------|--------------|
|-------9/10-------9/10------9/10-|---------|--------------|
|-------7/8--------7/8-------7/8--|---8\5---|---8\5--7\4---|
|-0-0-0------0-0-0-----0-0-0------|---6\3---|---6\3--5\2---|


Riff 3 x 4

Intro x 4 x 4

Riff 2 x 6

Riff 3 x 4

Riff 4 x 4

Riff 3 x 4

End
|--------------|
|--------------|
|--------------|
|---------9\---|
|--9--10--7\---|
|--7--9--------|

  Visit MetalTabs.com for more metal tablature

bottom separator

Contact Us | Privacy Policy | Disclaimer | Legal Notice
Copyright © 2001-2014 MetalTabs.com. All Rights Reserved.