top separator

Home

Forum

FAQ

Contact Us

Link to Us

MetalTabs.com logo

Bands

0-9

A

B

C

D

E

F

G

H

I

J

K

L

M

N

O

P

Q

R

S

T

U

V

W

X

Y

Z

Dillinger Escape Plan - "Panasonic Youth" Guitar Tab

Plain Text Version
More Dillinger Escape Plan Tabs

Hits: 2297
Rated: 4.50 out of 5 (2 votes)
Updated: 2007-01-27 00:30:09

By:


#----------------------------------PLEASE NOTE---------------------------------#
#This file is the author's own work and represents their interpretation of the #
#song. You may only use this file for private study, scholarship, or research. #
#Unless specified otherwise, this is NOT an official tab from the band members.#
#------------------------------------------------------------------------------#

  Visit MetalTabs.com for more metal tablature
  
Band:  The Dillinger Escape Plan
Album: Miss Machine
Song:  Panasonic Youth

Copyright (c) (Relapse Records)(2006)
Version 1.0 - (17/12/2006)

Transcribed By: Matias Guzman
Email:  hupus_tank@hotmail.com


.  - palm mute           /  - slide up to
\  - slide down to       ~  - vibrato
h  - hammer on           b  - Bend
p  - pull off            Suffixes for bend
t  - tap                 f  - full bend    h - half bend
ph - pinched harmonic    q  - quarter bend t - tap bend
*  - see comment         ^  - Hold bend    r release bend
x  - Stuccatto           ~  - vibrato bend
,  - slight palm mute    () - ghost note, sustained note
"  - tremolo note        <> - Trill



Tuning E A D G B E

|--------------------------------------------------------------|
|--------------------------------------------------------------|
|--------------------------------------------------------------|
|-6----66----66------6-6-6-6------6----6666----6----6----666---|
|-5----55----55------5-5-5-5------5----5555----5----5----555---|
|-4-44-44-44-44-4444-4-4-4-4-4444-4-44-4444-44-4-44-4-44-444-44|      (2x)
    **    **    ****         ****   **      **   **   **     **

* = harmonic note on fourth space



1 guitar
|--------------------------|
|-6-----6-----6-----6------|
|-6-----6-----6-----6------|
|-5-----5-----5-----5------|
|-4-4-5-4-4-5-4-4-5-4-4-5--|
|---3-4---3-4---3-4---3-4--|

2 guitar
|-------10-----10-----10---|
|----14-----14-----14------|
|--------------------------|
|--------------------------|
|--------------------------|
|--------------------------|


|----------------------------------------------------------------|
|----------------------------------------------------------------|
|----------------------------------------------------------------|
|-6----6-6----6-6------6-6-6-6------6----6666----6----6----666---|
|-5----5-5----5-5------5-5-5-5------5----5555----5----5----555---|
|-4-44-4-4-44-4-4-4444-4-4-4-4-4444-4-44-4444-44-4-44-4-44-444-44|
    **     **     ****         ****   **      **   **   **     **

* = harmonic note on fourth space


1 guitar
|-------------------------------------------------|
|-6-----6-----6-----6-----6-----6-----6------6----|
|-6-----6-----6-----6-----6-----6-----6------6----|
|-5-----5-----5-----5-----5-----5-----5------5----|
|-4-4-5-4-4-5-4-4-5-4-4-5-4-0-0-4-0-0-4-0000-4-4--|
|---3-4---3-4---3-4---3-4---0-0---0-0---0000---3--|


2 guitar
|-------10----10----15----10----10--------|
|----14----14----14----14----14----14-----|
|-------------------------------------13--|
|-----------------------------------------|
|-----------------------------------------|
|-----------------------------------------|



|--------------------------------------------------|
|-6-----6-----6-----6-----6-----6-----6-----6------|
|-6-----6-----6-----6-----6-----6-----6-----6------|
|-5-----5-----5-----5-----5-----5-----5-----5------|
|-4-4-5-4-4-5-4-4-5-4-4-5-4-4-5-4-4-5-4-4-5-4-4-5--|
|---3-4---3-4---3-4---3-4---3-4---3-4---3-4---3-4--|


|----------------------------------------------|
|-6-----6-----6-----6----6-----6-----6-----6---|
|-6-----6-----6-----6----6-----6-----6-----6---|
|-5-----5-----5-----5----5-----5-----5-----5---|
|-4-4-5-4-4-5-4-4-5-4-00-4-4-5-4-4-5-4-4-5-4-0-|
|---3-4---3-4---3-4---00---3-4---3-4---3-4---0-|


|----------------------------------------------------|
|-6-----6-----6-----6----6-----6---------------------|
|-6-----6-----6-----6----6-----6---------------------|
|-5-----5-----5-----5----5-----5---------9-8-7-8-7-5-|
|-4-4-5-4-4-5-4-4-5-4-00-4-4-5-4-4-5-----7-6-5-6-5-3-|
|---3-4---3-4---3-4---00---3-4---3-4-----7-6-5-6-5-3-|


|--------------------------|
|--------------------------|
|---------12--------12-----|
|-10--10----10--10----10---|
|---8---8-----8---8-----8--|
|--------------------------|


|---------------------------------------------------|
|-----------------------------0-----0---------------|
|-----------------------------1-----1---------------|
|---------------------------------------------------|
|-3333-3-4-3-2-2-2222-666-323---323---3333-3-4-3-3--|
|-1111-----------0000-444-101---101---1111----------|


|--------------------------|
|--------------------------|
|---------12--------12-----|
|-10--10----10--10----10---|
|---8---8-----8---8-----8--|
|--------------------------|



|---------------------------------------------------|
|-----------------------------0-----0---------------|
|-----------------------------1-----1---------------|
|---------------------------------------------------|
|-3333-3-4-3-2-2-2222-666-323---323---3333-3-4-3-3--|
|-1111-----------0000-444-101---101---1111----------|



|-------------------------------------------------------------------------|
|-------------------------------------------------------------------11----|
|---------12--------12--------12----------------12--------12------9----9--|
|-10--10----10--10----10--10----10--10--11--10----10--10----10------------|
|---8---8-----8---8-----8---8-----8---8---8---8-----8---8-----8-7---------|
|-------------------------------------------------------------------------|


|---------------------------------------------------------------|
|---------------------------------------------------------11----|
|---------12--------12----------------12--------12------9----9--|
|-10--10----10--10----10--10--11--10----10--10----10------------|
|---8---8-----8---8-----8---8---8---8-----8---8-----8-7---------|
|---------------------------------------------------------------|

-

|-------------------------------------------------------------------------|
|-------------------------------------------------------------------11----|
|---------12--------12--------12----------------12--------12------9----9--|
|-10--10----10--10----10--10----10--10--11--10----10--10----10------------|
|---8---8-----8---8-----8---8-----8---8---8---8-----8---8-----8-7---------|
|-------------------------------------------------------------------------|


|---------------------------------------------------------------|
|---------------------------------------------------------11----|
|---------12--------12----------------12--------12------9----9--|
|-10--10----10--10----10--10--11--10----10--10----10------------|
|---8---8-----8---8-----8---8---8---8-----8---8-----8-7---------|
|---------------------------------------------------------------|



|--------------------------------------------------------------------------|
|-----0-----0-----0---------0-----0------0-------0-----0---------0------0--|
|-----1-----1-----1---------1-----1------1-------1-----1---------1------1--|
|--------------------------------------------------------------------------|
|-323---323---323---323-3-3----323---323-----323---323---323-3-3----323----|
|-101---101---101---101-1-1----101---101-----101---101---101-1-1----101----|



|----------------------------------------------------------------|
|-----0-----0-----0---------0------0-----0-----0---------0----0--|
|-----1-----1-----1---------1------1-----1-----1---------1----1--|
|----------------------------------------------------------------|
|-323---323---323---323-3-3----323---323---323---323-3-3---323---|
|-101---101---101---101-1-1----101---101---101---101-1-1---101---|



|-------------------------|
|-------------------------|
|-------------------------|
|-------------------------|
|-3333-3-4-3-2-2-2222-666-|
|-1111-----------0000-444-|



2nd guitar
|----------------------------------------------------|
|----------------------------------------------------|
|----imposible to get something from this part-------|
|----------------------------------------------------|
|----------------------------------------------------|
|----------------------------------------------------|



|--------------------------------|
|----------22222-----------------|
|----------55555-----------------|
|----------22222---3--2--3--6--3-|
|--------------------------------|
|-1--0--1------------------------|



|----------------------------------------------------|
|---------------------------------------------22222--|
|---------------------------------------------55555--|
|---------------------------------------------22222--|
|----------------------------------------------------|
|--111-33-44-000000000--111-33-44-000000000----------|


|---------------------------------------------|
|---------------------------------------------|
|---------------------------------------------|
|---------------------------------------------|
|-----------------------------------------2---|
|--111-33-44-000000000--111-33-44-00000---0---|





do a pinch harmonic on the bend note
|------------------------------------------------|
|---------------------1--------------------------|
|---------------------1---1-3/4-1-3--------------|
|----3-1---4b-----3-1---3----------------3-1-----|
|--------2-----------------------------------2---|
|--1------------1----------------------1---------|


2nd guitar
|----------------------------------------------------|
|----------------------------------------------------|
|----imposible to get something from this part-------|
|----------------------------------------------------|
|----------------------------------------------------|
|----------------------------------------------------|


|-------------------------------22222-|
|-------------------------------22222-|
|-------------------------------------|
|-------------------------------------|
|-3-35-6-2-2222222-3-35-6-2-222-------|
|-1-13-4-0-0000000-1-13-4-0-000-------|



|------------------------------------|
|------------------------------------|
|------------------------------------|
|------------------------------------|
|-3-35-6-2-2222222-3-35-6-2-222-2-2--|
|-1-13-4-0-0000000-1-13-4-0-000-0-0--|




|--------------------|
|--------------------|
|--------------------|
|--------------------|
|-323-5-6-2-2222222--|
|-101-3-4-0-0000000--| (3x)


both
|---------------|
|---------------|
|---------------|
|---------------|
|-323-5--6---2--|
|-101-3--4---0--|

  Visit MetalTabs.com for more metal tablature

bottom separator

Contact Us | Privacy Policy | Disclaimer
Copyright © 2001-2014 MetalTabs.com. All Rights Reserved.