top separator

Home

Forum

What's New

Submit a Tab

FAQ

Links

Contact Us

Link to Us

MetalTabs.com logo

Bands

0-9

A

B

C

D

E

F

G

H

I

J

K

L

M

N

O

P

Q

R

S

T

U

V

W

X

Y

Z

Search

What

Where
 

Mithotyn - "Hearts of stone" Guitar Tab

Plain Text Version
More Mithotyn Tabs

Hits: 2253
Updated: 2007-06-04 03:09:05

 

By:

Daniil

sendpm.gif

email.gif

Important note
This tab is available online because we obtained explicit permission from Mithotyn or their label.


#----------------------------------PLEASE NOTE---------------------------------#
#This file is the author's own work and represents their interpretation of the #
#song. You may only use this file for private study, scholarship, or research. #
#Unless specified otherwise, this is NOT an official tab from the band members.#
#------------------------------------------------------------------------------#

  Visit MetalTabs.com for more metal tablature
  
MITHOTYN-Hearts Of Stone
Gathered Around The Oaken Table-1999
Copyright Invasion Records
Transcribed by Daniil Laletin
e-mail: dlaletin@mail.ru
version 1.0 December 2006

All corrections are welcome.

 " - tremolo
 / - slide down
 \ - slide up
 . - palm mute
 ~ - long sound
 x - rest
 p - pull off
 h - hammer on
 tr - trill
 () - ghost note, sustained note
 * - artificial harmonics
 b - bend

 Tuning from low to high: D G C F A D

================================

 Intro
|----------------------------------5---5-7--|
|-5--7-8-7-5-------7----5--7-8-7-5---7------|
|------------7-4-7--------------------------|
|-------------------------------------------|gtr 1
|-------------------------------------------|
|-------------------------------------------|
|
|-------------------------------------------|
|-------------------------------------------|
|-------------------------------------------|
|------------------7-----------------0-4-5--|gtr 2
|------------------5------------------------|
|-------------------------------------------|

|-5--7-8-7-5------------7-8-7-5--------7\---|
|------------8-5-8-7------------8-7-5-------|
|-------------------------------------------|
|-------------------------------------------|gtr 1
|-------------------------------------------|
|-------------------------------------------|
|
|-------------------------------------------|
|-------------------------------------------|
|-------------------------------------------|
|-2----------5-----4----4-------------------|gtr 2
|-0----------3-----2----2-3-2-0-7-5-7--5----|
|--------------------------------------3----|



 Riff 1
|----------------------------------------5---5-7--|
|-5---7-8--7-5--------7----5---7-8--7-5----7------|
|---------------7-4-7-----------------------------|
|-------------------------------------------------|gtr 1
|-------------------------------------------------|
|-------------------------------------------------|
|
|-------------------------------------------------|
|-------------------------------------------------|
|-------------------------------------------------|
|---------------5-----7------------------7-0-7-9--|gtr 2
|-2------2------3-----5----2------2---------------|
|-0-0000-0-0000------------0-0000-0-0000----------|

|-5---7-8--7-5-------------7-8-7-5--------7\---|
|---------------8-5-8-7------------8-7-5-------|
|----------------------------------------------|
|----------------------------------------------|gtr 1
|----------------------------------------------|
|----------------------------------------------|
|
|----------------------------------------------|
|----------------------------------------------|
|----------------------------------------------|
|-2------2------5-----4------------------------|gtr 2
|-0-0000-0-0000-3-----2----2-3-2-0-7-5-7--5----|
|-----------------------------------------3----|



 Riff 2
|----------------------------------5---5-7--|
|-5--7-8-7-5-------7----5--7-8-7-5---7------|
|------------7-4-7--------------------------|
|-------------------------------------------|gtr 1
|-------------------------------------------|
|-------------------------------------------|
|
|-------------------------------------------|
|-------------------------------------------|
|-------------------------------------------|
|-2---------------------2-------------------|gtr 2
|-2---------------------2-------------------|
|-0---------------------0-------------------|

|-5--7-8-7-5------------7-8-7-5--------7\---|
|------------8-5-8-7------------8-7-5-------|
|-------------------------------------------|
|-------------------------------------------|gtr 1
|-------------------------------------------|
|-------------------------------------------|
|
|-------------------------------------------|
|-------------------------------------------|
|-2-----------------------------------------|
|-2---------------------4-----5-------------|gtr 2
|-0---------------------2-----3-----2x-5----|
|-----------------------------------0x-3----|




 Riff 3
|--------------------------------|
|--------------------------------|
|--------------------------------|
|------------9-----10--9-7-5-5-7-|gtr 1
|-7777-10777--7777-----------3-5-|
|--------------------------------|
|
|--------------------------------|
|--------------------------------|
|--------------------------------|
|----------------------------5-7-|gtr 2
|----------------------------3-5-|
|-0000--3000-70000--8--7-5-3-----|

|---------------------------------|
|---------------------------------|
|---------------------------------|
|------------9-----12--10-9-7-4-5-|gtr 1
|-7777-10777--7777------------2-3-|
|---------------------------------|
|
|---------------------------------|
|---------------------------------|
|---------------------------------|
|-----------------------------4-5-|gtr 2
|-------------------5--3--2-0-2-3-|
|-0000--3000-70000----------------|

|--------------------------------------|
|--------------------------------------|
|--------------------------------2h4h5-|
|-----------7-----9--7-5-4-2h4h5-------|gtr 1
|-5555-9555--5555----------------------|
|--------------------------------------|
|
|--------------------------------------|
|--------------------------------------|
|--------------------------------------|
|-----------7-----9--7-5-4-5-----7-----|gtr 2
|-5555-9555--5555----------3-----5-----|
|--------------------------------------|

|---------------------------------------------------------|
|---------------------------------------------------------|
|---------------------------------------------------------|
|------------9-----12--10-9-7-9h10p9----------------------|gtr 1
|-7777-10777--7777-------------------9-10--9-7-5-9h10p9-6-|
|---------------------------------------------------------|
|
|---------------------------------------------------------|
|---------------------------------------------------------|
|---------------------------------------------------------|
|-----------------------------4---------------------------|gtr 2
|-------------------5--3--2-0-2------5-------0-2---5----2-|
|-0000--3000-70000-------------------3--------------------|




 Before long Riff 4 play the kast part of Riff 3 like this
|---------------------------------------------------------|
|---------------------------------------------------------|
|---------------------------------------------------------|
|------------9-----12--10-9-7-9h10p9----------------------|gtr 1
|-7777-10777--7777-------------------9-10--9-7-5--9h11h12-|
|---------------------------------------------------------|
|
|---------------------------------------------------------|
|---------------------------------------------------------|
|---------------------------------------------------------|
|-----------------------------4---------------------------|gtr 2
|-------------------5--3--2-0-2------5-------0-2---5----2-|
|-0000--3000-70000-------------------3--------------------|




 Riff 4a
|-------------------------------------|
|-------------------------------------|
|-9---11-12-11-9--11------------------|
|---------------------12--9---9h11h12-|gtr 1
|-------------------------------------|
|-------------------------------------|
|
|-------------------------------------|
|-------------------------------------|
|-------------------------------------|
|-----------------4-4-4-4-4-4---------|gtr 2
|-2-2-2-2-2-2-2-2-2-2-2-2-2-2--7---5--|
|-0-0-0-0-0-0-0-0--------------5---3--|

|---------------------------------------|
|-----------------/13--12-10-12---------|
|-9---11-12-11-9------------------------|
|-------------------------------9h11h12-|gtr 1
|---------------------------------------|
|---------------------------------------|
|
|---------------------------------------|
|---------------------------------------|
|---------------------------------------|
|-----------------5-5-5-5-7-7-7-7-------|gtr 2
|-2-2-2-2-2-2-2-2-3-3-3-3-5-5-5-5-------|
|-0-0-0-0-0-0-0-0-----------------------|

|------------------------------------|
|------------------------------------|
|-9---11-12-11-9--11-----------------|
|---------------------12--9----------|gtr 1
|-----------------------------7h9h10-|
|------------------------------------|
|
|------------------------------------|
|------------------------------------|
|------------------------------------|
|-----------------4-4-4-4-4-4--------|gtr 2
|-2-2-2-2-2-2-2-2-2-2-2-2-2-2-7---5--|
|-0-0-0-0-0-0-0-0-------------5---3--|

|-----------------------------------|
|-----------------------------------|
|-----------------------------------|
|-7---9-10-9-7--9---7-5----12h14h15-|gtr 1
|-----------------------7-----------|
|-----------------------------------|
|
|-----------------------------------|
|-----------------------------------|
|-----------------------------------|
|-5-5-5-5--7--5--4------------------|gtr 2
|-3-3-3-3--5--3--2--7-5-2-----------|
|-------------------5-3-0-----------|



 Riff 4b
|---------------------------------------|
|---------------------------------------|
|-12---14-15-14-12--14------------------|
|----------------------15-12---12h14h15-|gtr 1
|---------------------------------------|
|---------------------------------------|
|
|---------------------------------------|
|---------------------------------------|
|---------------------------------------|
|-----------------7-7-7-7-7-7--5----3---|gtr 2
|-5-5-5-5-5-5-5-5-5-5-5-5-5-5--3----1---|
|-3-3-3-3-3-3-3-3-----------------------|

|------------------------------------------|
|-------------------/16--15-13-15----------|
|-12---14-15-14-12-------------------------|
|---------------------------------12h14h15-|gtr 1
|------------------------------------------|
|------------------------------------------|
|
|------------------------------------------|
|------------------------------------------|
|------------------------------------------|
|-----------------7-7-7-7-9-9-9-9----------|gtr 2
|-5-5-5-5-5-5-5-5-5-5-5-5-7-7-7-7----------|
|-3-3-3-3-3-3-3-3--------------------------|

|---------------------------------------|
|---------------------------------------|
|-12---14-15-14-12--14------------------|
|----------------------15-12------------|gtr 1
|------------------------------10h12h13-|
|---------------------------------------|
|
|---------------------------------------|
|---------------------------------------|
|---------------------------------------|
|-----------------7-7-7-7-7-7--5----3---|gtr 2
|-5-5-5-5-5-5-5-5-5-5-5-5-5-5--3----1---|
|-3-3-3-3-3-3-3-3-----------------------|

|-----------------------------------------|
|-----------------------------------------|
|-----------------------------------------|
|-10---12-13-12-10--12--10-8-----13h15h16-|gtr 1
|----------------------------10-----------|
|-----------------------------------------|
|
|----------------------------------------|
|----------------------------------------|
|----------------------------------------|
|-8-8-8-8---10--8--7----5-3--------------|gtr 2
|-6-6-6-6----8--6--5----3-1-5------------|
|---------------------------3------------|



 Riff 4c
|---------------------------------------|
|---------------------------------------|
|-13---15-16-15-13--15------------------|
|----------------------16-13---13h15h16-|gtr 1
|---------------------------------------|
|---------------------------------------|
|
|---------------------------------------|
|---------------------------------------|
|---------------------------------------|
|-----------------8-8-8-8-8-8--6----4---|gtr 2
|-6-6-6-6-6-6-6-6-6-6-6-6-6-6--4----2---|
|-4-4-4-4-4-4-4-4-----------------------|

|------------------------------------------|
|-------------------/17--16-14-16----------|
|-13---15-16-15-13-------------------------|
|---------------------------------13h15h16-|gtr 1
|------------------------------------------|
|------------------------------------------|
|
|------------------------------------------|
|------------------------------------------|
|------------------------------------------|
|-----------------8-8-8-8-10101010---------|gtr 2
|-6-6-6-6-6-6-6-6-6-6-6-6-8-8-8-8----------|
|-4-4-4-4-4-4-4-4--------------------------|

|---------------------------------------|
|---------------------------------------|
|-13---15-16-15-13--15------------------|
|----------------------16-13------------|gtr 1
|------------------------------11h13h14-|
|---------------------------------------|
|
|---------------------------------------|
|---------------------------------------|
|---------------------------------------|
|-----------------8-8-8-8-8-8--6----4---|gtr 2
|-6-6-6-6-6-6-6-6-6-6-6-6-6-6--4----2---|
|-4-4-4-4-4-4-4-4-----------------------|

|-----------------------------------------|
|-----------------------------------------|
|-----------------------------------------|
|-11---13-14-13-11--13--11-9-----10h12h13-|gtr 1
|----------------------------11-----------|
|-----------------------------------------|
|
|-----------------------------------------|
|-----------------------------------------|
|-----------------------------------------|
|-8-8-8-8----10--8--7----5-3--------------|gtr 2
|-6-6-6-6-----8--6--5----3-1-5------------|
|----------------------------3------------|



 Riff 4d
|----------------------------------------|
|----------------------------------------|
|-10---12-13-12-10--12-------------------|
|----------------------13--10---10h12h13-|gtr 1
|----------------------------------------|
|----------------------------------------|
|
|----------------------------------------|
|----------------------------------------|
|----------------------------------------|
|-----------------5-5-5-5-5-5------------|gtr 2
|-3-3-3-3-3-3-3-3-3-3-3-3-3-3-----8---6--|
|-1-1-1-1-1-1-1-1-----------------6---4--|

|-----------------------------------------|
|------------------/14--13-11-13----------|
|-10---12-13-12-10------------------------|
|--------------------------------10h12h13-|gtr 1
|-----------------------------------------|
|-----------------------------------------|
|
|-----------------------------------------|
|-----------------------------------------|
|-----------------------------------------|
|------------------6-6-6-6-8-8-8-8--------|gtr 2
|-3-3-3-3-3-3-3-3--4-4-4-4-6-6-6-6--------|
|-1-1-1-1-1-1-1-1-------------------------|

|-------------------------------------|
|-------------------------------------|
|-10---12-13-12-10--12----------------|
|----------------------13--10---------|gtr 1
|-----------------------------8h10h11-|
|-------------------------------------|
|
|-------------------------------------|
|-------------------------------------|
|-------------------------------------|
|-----------------5-5-5-5-5-5---------|gtr 2
|-3-3-3-3-3-3-3-3-3-3-3-3-3-3--8---6--|
|-1-1-1-1-1-1-1-1--------------6---4--|

|-------------------------------------|
|-------------------------------------|
|-------------------------------------|
|-8---10-11-10-8--10---8-6----9h11h12-|gtr 1
|--------------------------8----------|
|-------------------------------------|
|
|-------------------------------------|
|-------------------------------------|
|-------------------------------------|
|-6-6-6-6----8--7--5------------------|gtr 2
|-4-4-4-4----6--5--3---8-6-3----------|
|----------------------6-4-1----------|


 Again Riff 4a



 Riff 5
|-----------------------------|
|-----------------------------|
|-----------------------------|
|-2------5------2------4------|both
|-2------3------0------2------|
|-0------3------0------2------|

|--------------------------------------------|
|--------------------------------------------|
|--------------------------------------------|
|-------------------------------5-------7----|both
|-33333333-55555555-------------5-------7----|
|-33333333-55555555-00000000-33-3----55-5----|
  ........ ........          ..      ..



 Riff 6a
|---------------------------------|
|---------------------------------|
|---------------7-----------------|
|-----9---7-----5-----9-----------|gtr 1
|-----7---5-----------7-----5-7---|
|-0-0---0---0-0---0-0---0-7-------|
|
|---------------------------------|
|---------------------------------|
|---------------------------------|
|---------------------------------|gtr 2
|-----2-------2-------2-------2---|
|-----0-------0-------0-------0---|


|----------------------------------|
|---------------/10--8-------8-----|
|----------------------9-7-9---9-7-|
|-----9---7------------------------|gtr 1
|-----7---5------------------------|
|-0-0---0---0-0--------------------|
|
|----------------------------------|
|----------------------------------|
|----------------------------------|
|----------------------------------|gtr 2
|-----2-------2--------2-------2---|
|-----0-------0--------0-------0---|


|--------------------------------|
|--------------------------------|
|--------------------4-5-------4-|
|-----9---7-----5--7-----4-5-7---|gtr 1
|-----7---5----------------------|
|-0-0---0---0-0------------------|
|
|--------------------------------|
|--------------------------------|
|--------------------------------|
|--------------------------------|gtr 2
|-----2-------2------2-------2---|
|-----0-------0------0-------0---|

|---------------------------|
|---------------------------|
|-----------------------9---|
|---------------------------|gtr 1
|-------5-------------------|
|-3-5-7-.--7-5-3-3-5-3------|
| . . .    . . . . . .
|---------------------------|
|---------------------------|
|---------------------------|
|---------------------------|gtr 2
|-------5---------------7---|
|-3-5-7-.--7-5-3-3-5-3------|
  . . .    . . . . . .



 Riff 6b
|---------------------------------|
|---------------------------------|
|---------------7-----------------|
|-----9---7-----5-----9-----------|gtr 1
|-----7---5-----------7-----5-7---|
|-0-0---0---0-0---0-0---0-7-------|
|
|---------------------------------|
|---------------------------------|
|---------------7-----------------|
|-----9---7-----5-----9-----------|gtr 2
|-----7---5-----------7-----5-7---|
|-0-0---0---0-0---0-0---0-7-------|


|----------------------------------|
|---------------/10--8-------8-----|
|----------------------9-7-9---9-7-|
|-----9---7------------------------|gtr 1
|-----7---5------------------------|
|-0-0---0---0-0--------------------|
|
|----------------------------------|
|----------------------------------|
|----------------------------------|
|-----5---4----------------7-------|gtr 2
|-----7---5------5---------5---9---|
|-0-0---0---0-0--3-------------7---|


|--------------------------------|
|--------------------------------|
|--------------------4-5-------4-|
|-----9---7-----5--7-----4-5-7---|gtr 1
|-----7---5----------------------|
|-0-0---0---0-0------------------|
|
|--------------------------------|
|--------------------------------|
|--------------------------------|
|-----5---4-----9--7-----7-------|gtr 2
|-----7---5----------109---109-7-|
|-0-0---0---0-0------------------|

|---------------------------|
|---------------------------|
|-----------------------9---|
|---------------------------|gtr 1
|-------5-------------------|
|-3-5-7-.--7-5-3-3-5-3------|
| . . .    . . . . . .
|---------------------------|
|---------------------------|
|---------------------------|
|---------------------------|gtr 2
|-------5---------------7---|
|-3-5-7-.--7-5-3-3-5-3------|
  . . .    . . . . . .



 Riff 6c
|---------------------------------|
|---------------------------------|
|---------------7-----------------|
|-----9---7-----5-----9-----------|gtr 1
|-----7---5-----------7-----5-7---|
|-0-0---0---0-0---0-0---0-7-------|
|
|---------------------------------|
|---------------------------------|
|---------------7-----------------|
|-----9---7-----5-----9-----------|gtr 2
|-----7---5-----------7-----5-7---|
|-0-0---0---0-0---0-0---0-7-------|


|------------------------------10----------|
|-12---------------8-12-8h10p8-----12-10-8-|
|----12p9-7-9--7-9-------------------------|
|------------------------------------------|gtr 1
|------------------------------------------|
|------------------------------------------|
|
|------------------------------------------|
|------------------------------------------|
|------------------------------------------|
|-----5----4-----------------------7-------|gtr 2
|-----7----5---------5-------------5-----9-|
|-0-0----0----0-0----3-------------------7-|


|--------------------------------|
|--------------------------------|
|--------------------4-5-------4-|
|-----9---7-----5--7-----4-5-7---|gtr 1
|-----7---5----------------------|
|-0-0---0---0-0------------------|
|
|--------------------------------|
|--------------------------------|
|--------------------------------|
|-----5---4-----9--7-----7-------|gtr 2
|-----7---5----------109---109-7-|
|-0-0---0---0-0------------------|

|---------------------------|
|---------------------------|
|-----------------------9---|
|---------------------------|gtr 1
|-------5-------------------|
|-3-5-7-.--7-5-3-3-5-3------|
| . . .    . . . . . .
|---------------------------|
|---------------------------|
|---------------------------|
|---------------------------|gtr 2
|-------5---------------7---|
|-3-5-7-.--7-5-3-3-5-3------|
  . . .    . . . . . .


 Ending part
 ===========
 Play Riff 6 b
 then, 6 c, but the very last line play like this:
|---------------------------|
|---------------------------|
|-----4-7--4------------9---|
|-5-7-.-.--.-7-5-5-7-5------|gtr 1
|-.-.--------.-.-.-.-.------|
|---------------------------|
|
|---------------------------|
|---------------------------|
|---------------------------|
|---------------------------|gtr 2
|-------5---------------7---|
|-3-5-7-.--7-5-3-3-5-3------|
  . . .    . . . . . .

  Visit MetalTabs.com for more metal tablature

bottom separator

Contact Us | Privacy Policy | Disclaimer | Legal Notice
Copyright © 2001-2014 MetalTabs.com. All Rights Reserved.