top separator

Home

Forum

What's New

Submit a Tab

FAQ

Links

Contact Us

Link to Us

MuSpy.com

MetalTabs.com logo

Bands

0-9

A

B

C

D

E

F

G

H

I

J

K

L

M

N

O

P

Q

R

S

T

U

V

W

X

Y

Z

Search

What

Where
 

The Red Chord - "He Was Dead When I Got There" Guitar Tab

Plain Text Version
More The Red Chord Tabs

Hits: 5271
Rated: 4.50 out of 5 (2 votes)
Updated: 2006-12-18 01:29:09

 

By:

goatman

sendpm.gif

email.gif

Important note
This tab is available online because we obtained explicit permission from The Red Chord or their label.


#----------------------------------PLEASE NOTE---------------------------------#
#This file is the author's own work and represents their interpretation of the #
#song. You may only use this file for private study, scholarship, or research. #
#Unless specified otherwise, this is NOT an official tab from the band members.#
#------------------------------------------------------------------------------#

  Visit MetalTabs.com for more metal tablature
  
Band:  (THE RED CHORD)
Album: (CLIENTS)
Song:  (HE WAS DEAD WHEN I GOT THERE)

Copyright (c)  (METAL BLADE) (2005)

Transcribed By: (GOATMAN)
Email:          (VIRUS010891@AOL.COM)


.  - palm mute           /  - slide up to
\  - slide down to       ~  - vibrato
h  - hammer on
p  - pull off
f  - full bend    h - half bend
ph - pinched harmonic
q  - quarter bend
^  - Hold bend    r release bend
() - ghost note, sustained note

Tuning D G C F A D
                    x2
|--------------------|-------------------------------------------------
|.------------------.|-------------------------------------------------
|--------------------|-------------------------------------------------
|--------------------|---------2---4-4---4-4-4------------------------2
|.-4-2-4----7---(7)-.|-4-2-4---0---2-2---2-2-2-4-2-4---7---(7)---0-2/4-
|--2-0-2--0-5-0-(4)--|-2-0-2-0---0-0-0-0-0-0-0-2-0-2-0-5-0-(4)-/2------
          .   .              .   .     .             .   .
                                                                           x2
|---------------------------------------------------------------------------|
|.-------------------------------------------------------------------------.|
|---------------------------------------------------------------------------|
|------------------------------------2---4-4---4-4-4-----------------------2|
|.-4-2-4---7---(7)-7-----2-4-4-2-4---0---2-2---2-2-2-4-2-4---7---(7)---02/4.|
|--2-0-2-0-5-0-(4)-4-0-0-0-2-2-0-2-0---0-0-0-0-0-0-0-2-0-2-0-5-0-(4)-/2-----|
         .   .       . .           .   .     .             .   .

|-------------------/12--9------------------------------------------|
|-------9-10-12-(9)-/14-10-12-10-9-(10)10f--r----9---9-9ph-9h10-(9)-|
|--9-11-9-11-13-(9)--------13-11-9-(11)11f--r-/9-9-9-9-9---9h11-(9)-|
|-11-12---------------------------------------/9---11---------------|
|-------------------------------------------------------------------|
|-------------------------------------------------------------------|
|                                                                   |
|                                                                   |
|-------------------------------------------------------------------|
|-------------------------------------------------------------------|
|-------------------------------------------------------------------|
|-(4)-----------(2)--------(7)---------(6)-----(2)------------------|
|-(4)-----------(2)--------(7)---------(7)-----(2)------------------|
|-(2)-----------(0)--------(5)---------(4)-----(0)------------------|

|----------------------------------------------------------------------------|
|---------------------------------------5---------------5--------(5)5h7-5/2--|
|---6---------------6-----------------6-6-4-2-1-2-(4)-6-6-4-2-1-2----------4-|
|-7---6-4-6-4-(6)-7---6-4-6-4-6h-r(6)-7---6-4-2-4-(6)-7---6-4-2-4(6)---------|
|---7---------------7--------------------------------------------------------|
|-9---7-5-7-5-(7)-9---7-5-7-5-7f-r(7)----------------------------------------|
|                                                                            |
|                                                                            |
|                                                                            |
|----------------------------------------------------------------------------|
|----------------------------------------------------------------------------|
|----------------------------------------------------------------------------|
|-(4)-------------(4)-----------------(4)-------------(4)--------------------|
|-(4)----------(7)(4)--------------(7)(4)----------(7)(4)--------(7)---------|
|-(2)----------(4)(2)--------------(4)(2)----------(4)(2)--------(4)---------|

|---------------------------------------------------------------------
|.--------------------------------------------------------------------
|---------------------------------------------------------------------
|-----------------------------------2---4-4---4-4-4-------------------
|.4-2-4---7---(7)-7-----2-4-4-2-4---0---2-2---2-2-2-4-2-4---7---(7)---
|-2-0-2-0-5-0-(4)-4-0-0-0-2-2-0-2-0---0-0-0-0-0-0-0-2-0-2-0-5-0-(4)---
        .   .       . .           .   .     .             .   .
                                          x2
-------------------------------------------|
------------------------------------------.|
-------------------------------------------|
----------------------------------2--------|
-7-----2-4-4-2---7---(7)----0-2/4---------.|
-4-0-0-0-2-2-0-0-5-0-(4)-/2----------------|
   . .         .   .

|-----------------------------------------------------------------------|
|-----------------------------------------------------------------------|
|---------------------------------------11-------11---------------------|
|-(4)-(6)-(7)-(11)-(4)-(6)-(11)-(14)-/11--9hr7/11--9hr7-------7---------|
|------------------------------------------------------9-7-7-9----------|
|---------------------------------------------------------9-------------|
|                                                                       |
|                                                                       |
|                                                                       |
|-----------------------------------------------------------------------|
|-----------------------------------------------------------------------|
|---------------------------------------------(1)-----------------------|
|-(4)-(2)-(7)-(4)-(4)-(2)--(7)--(2)--(4)------(2)-----------------------|
|-(4)-(2)-(7)-(4)-(4)-(2)--(7)--(2)--(4)------(2)-----------------------|
|-(2)-(0)-(5)-(2)-(2)-(0)--(5)--(0)--(2)------(0)-----------------------|

|------------------------------------------------------------------------------|
|------------------------------------------------------------------------------|
|---11-------11----------------11-------11---------------11-------11-----------|
|/11--9hr7/11--9hr7-------7-/11--9hr7/11--9hr7------7-/11--9hr7/11--9hr7------7|
|------------------9-7-7-9--------------------97-7-9--------------------97-7-9-|
|---------------------9-------------------------9-------------------------9----|
|                                                                              |
|                                                                              |
|                                                                              |
|------------------------------------------------------------------------------|
|--------------------------------------------------------------(5)-------------|
|---------(6)-------------------------(1)----------------------(x)-------------|
|-(7)-----(4)---------------(4)-------(2)-------------(7)------(2)-------------|
|-(7)-----(4)---------------(4)-------(2)-------------(7)------(2)-------------|
|-(5)-----(2)---------------(2)-------(0)-------------(5)------(0)-------------|

|-------------------------------------------|---------------------------------
|-------------------------------------------|.--------------------------------
|-------------------------------------------|---------------------------------
|--4----------------------4-----------------|----4----------------------------
|/4--2-2-0--------------/4-2-2-0------2hr(2)|./4-4-2-2-0-0h2-0-2-2hr-0-0h2----
|----------2-0-2-4hr-0-0---------2-0-2------|-/4---2-2-0-0h2-0-2-2hr-0-0h2----
             . .     .             . .                       . .     .
                          x3                            x2
---------------------------|-----------------------------|
--------------------------.|.---------------------------.|
---------------------------|-----------------------------|
----4----------------------|--(4)-6hr-(4)-(4)-6hr-2------|
-/4-4-2-2-0-0h2-0-2-2hr(2).|.---------------------------.|
-/4---2-2-0-0h2-0-2-2hr(2)-|-----------------------------|
                . .        |                             |
                           |                             |
                           |-----------------------------|
                           |.---------------------------.|
                           |-----------------------------|
                           |-----------------------------|
                           |.-(4)-2-4-(4)--(4)-2-4------.|
                           |--(2)-0-2-(2)--(2)-0-2-------|
                                  . .          . .

|-14p9-12p7-9p4/7-7/2-4hr-2h4-14p9-12p7-9p4/(7)-------------------------|
|.----------------------------------------------------------------------|
|-----------------------------------------------9/11/9-7~---------------|
|-----------------------------------------------9/11/9-7~---------------|
|.----------------------------------------------------------------------|
|-----------------------------------------------------------------------|
|                                                                       |
|                                                                       |
|                                                                       |
|-----------------------------------------------------------------------|
|.----------------------------------------------------------------------|
|-----------------------------------------------------------------------|
|-----------------------------------------------------------------------|
|.(4)-------2-4--(4)---------(4)----2-4-----(4)-------------------------|
|-(2)-------0-2--(2)---------(2)----0-2-----(2)-------------------------|
            . .                     . .
                          *(3rd and 4th times-play and octave lower)*  x4
|-14p9-12p7-9p4-7-7/2-4hr-2h4-14p9-12p7-9h4-(7)-------------------------|
|----------------------------------------------------------------------.|
|-----------------------------------------------9/11/9-7----------------|
|-----------------------------------------------9/11/9-7----------------|
|----------------------------------------------------------------------.|
|-----------------------------------------------------------------------|
|                                                                       |
|                                                                       |
|                                                                       |
|-----------------------------------------------------------------------|
|----------------------------------------------------------------------.|
|-----------------------------------------------------------------------|
|-----------------------------------------------------------------------|
|-(4)-------2-4-(4)----------(4)--------2-4-(4)------------------------.|
|-(2)-------0-2-(2)----------(2)--------0-2-(2)-------------------------|

                                                                       x2
|-----------------------------------------------------------------------|
|.---------------------------------------------------------------------.|
|-----------------------------------------------------------------------|
|---------(4)-6hr---------(4)-4-6hr-2-----------------------------------|
|.(4)-2-2-(2)-----(4)-2-2-(2)-2----------------------------------------.|
|-(2)-0-0-(0)-----(2)-0-0-(0)-0-----------------------------------------|

                                                                       x2
|-14/9-12/7-9/16-(12)-12/14-9(12)-14/9-12/7-9/4-(7)---------------------|
|.---------------------------------------------------------------------.|
|-11/6--9/4-6/13-(9)---9/11-6/(9)-11/6--9/4-6/1-(4)-9/11/9-7------------|
|---------------------------------------------------9/11/9-7------------|
|.---------------------------------------------------------------------.|
|-----------------------------------------------------------------------|
|                                                                       |
|                                                                       |
|                                                                       |
|-----------------------------------------------------------------------|
|.---------------------------------------------------------------------.|
|-----------------------------------------------------------------------|
|-----------------------------------------------------------------------|
|.(4)-------2-4-(4)---------------(4)-2-4-(4)--------------------------.|
|-(2)-------0-2-(2)---------------(2)-0-2-(2)---------------------------|
            . .                       . .

|-----------------------------------------------------------------------|
|-----------------------------------------------------------------------|
|-----------------------------------------------------------------------|
|---4------------------------4------------------------------------------|
|-/4--2-2-0----------------/4--2-2-0-------2fr--------------------------|
|-----------2-0-2-2hr-0-(0)----------2-0-2------------------------------|
              . .     .                . .

|-----------------------------------------------------------------------------
|-----------------------------------------------------------------------------
|-----------------------------------------------------------------------------
|----4--------------------------------7---------------------------7-----------
|-/4-4-2-2-0-0h2-0-2-2hr-0-0h2-etc.-9-7-7-7-5-5h7-5-7-7fr-5-5h7-9-7-7-7-5-5h7-
|-/4---2-2-0-0h2-0-2-2hr-0-0h2------9---7-7-5-5h7-5-7-7fr-5-5h7-9---7-7-5-5h7-
                 . .     .                        . .

----------------------------------------------------------------------
----------------------------------------------------------------------
--------------6---------------------------6---------------4fr(4)------
-----6hr(6)-7-7-6-6-4-4h6-4-6-6hr-4-4h6-7-7-6-6-4-4h6-4-6-------------
-5-7--------9---7-7-5-5h7-5-7-7fr-5-5h7-9---7-7-5-5h7-5-7-------------
-5-7------------------------------------------------------------------
 . .                      . .     .                   . .

--------------------------------------------------------------------------4hr-
---5---------------------------5---------------------------5------------------
-6---4-4-2-2h4-2-4-4fr-2-2h4-6---4-4-2-2h4-2-4-4fr-2-2h4-6---4-4-2-2h4-2-4----
------------------------------------------------------------------------------
------------------------------------------------------------------------------
------------------------------------------------------------------------------
               . .                         . .                         . .

JUST KEEP GOING UP ONE SCALE DEGREE THROUGHOUT FADE OUT

  Visit MetalTabs.com for more metal tablature

bottom separator

Contact Us | Privacy Policy | Disclaimer | Legal Notice
Copyright © 2001-2014 MetalTabs.com. All Rights Reserved.