top separator

Home

Forum

What's New

Submit a Tab

FAQ

Links

Contact Us

Link to Us

MuSpy.com

MetalTabs.com logo

Bands

0-9

A

B

C

D

E

F

G

H

I

J

K

L

M

N

O

P

Q

R

S

T

U

V

W

X

Y

Z

Search

What

Where
 

Prostitute Disfigurement - "Deformed Slut" Guitar Tab

Plain Text Version
More Prostitute Disfigurement Tabs

Hits: 2090
Updated: 2006-12-18 01:25:27

 

By:

goatman

sendpm.gif

email.gif

Important note
This tab is available online because we obtained explicit permission from Prostitute Disfigurement or their label.


#----------------------------------PLEASE NOTE---------------------------------#
#This file is the author's own work and represents their interpretation of the #
#song. You may only use this file for private study, scholarship, or research. #
#Unless specified otherwise, this is NOT an official tab from the band members.#
#------------------------------------------------------------------------------#

  Visit MetalTabs.com for more metal tablature
  
Band:  (PROSTITUTE DISFIGUREMENT)
Album: (DEEDS OF DERANGEMENT)
Song:  (DEFORMED SLUT)

Copyright (c)  (NEUROSIS) (2003)

Transcribed By: (GOATMAN)
Email:          (VIRUS010891@AOL.COM)


.  - palm mute
h  - hammer on
p  - pull off
t  - tap
"  - tremolo note
() -ghost note, sustained note
Tuning D G C F A D
                                     x8                            x8
|----------|--------------------------|-----------------------------|
|----------|.------------------------.|.---------------------------.|
|----------|--------------------------|-----------------------------|
|----------|--------------------------|---------------4---3---4-----|
|-9-12-9-8-|.---------------9-12-9-8-.|.----------2---2---1---2----.|
|-7-10-7-6-|--0-0000-0-0000-7-10-7-6--|--0-000000-0-3---0---0-------|
              . .... . ....              . ......   .   .   .
                          x8                                        x5
|--------------------------|-----------------------------------------|
|.------------------------.|.---------------------------------------.|
|--------------------------|-----------------------------------------|
|--------------------------|-----------------------------------------|
|.---------------9-12-9-8-.|.-------4"----3"----1"------------------.|
|--0-0000-0-0000-7-10-7-6--|--0"-3"----3"----3"----1"3"--------------|
   . .... . ....
                                                x2 (DUO GUITAR HARMONY)
|------------------------------------------------|----------------------
|.----------------------------------------------.|.---------------------
|------------------------------------------------|----------------------
|------------------TPHPHP------------------------|---TP-HP-HP--TP-HP-HP-
|.-TPHPHP--TPHPHP-1258585-TPHPHP--2---2---3---5-.|.-147107107-147107107-
|-1258585-1258585---------858585--0-0-0-0-1-0-3--|--125-85-85-125-85-85-
                                    .   .   .
               x2 SOLO
----------------|--------------------------------------------------------
---------------.|.-------------------------------------------------------
----------------|------------------------------------------8"-12-(11)~~--
----------------|--4"7"10"4"7"10"4"7"10"4"7"10"4"7"10"7"10"--------------
-2---2---3---5-.|.-------------------------------------------------------
-0-0-0-0-1-0-3--|--------------------------------------------------------
   .   .   .       . .  . . .  . . .  . . .  . . .  . .  . .

-----------------------------------------------------------------------------
------------------------------------------------------19-----16-----------19-
------------------------17--17-20-17-----20-17--(17)~~--20-17--17-14-17-20---
---------16--16-19-16-19--19--------19-16-----19-----------------------------
-18-15-18--18----------------------------------------------------------------
-----------------------------------------------------------------------------

-------------------(21")17"19"16"17"14"16"12"14"----------9----9----9----9----
-20"-17"(19)~~----------------------------------13"(12)~~---8-7--8-7--8-7--8-7
------------------------------------------------------------------------------
------------------------------------------------------------------------------
------------------------------------------------------------------------------
------------------------------------------------------------------------------
                                                             . .  . .  . .  . .
                                                                            x3
-14-----14----------------|--------------------------------------------------|
---13-12---13-12/(19)~~~~-|.------------------------------------------------.|
--------------------------|--------------------------------------------------|
--------------------------|-------------10/7-7-9/6---------------------------|
--------------------------|.-------------8/5-5-7/4---------------6-9-6-5----.|
--------------------------|-0-0000-0-0000----------0-0000-0-0000-4-7-4-3-----|
   .  .     .  .            . .... . ....          . .... . ....
                                                                             x4
-----------------------------------------------|------------------------------|
-----------------------------------------------|.----------------------------.|
-----------------------------------------------|------------------------------|
-------------10/7-7-9/6------------------------|------------------------------|
--------------8/5-5-7/4---------------9-12-9-8-|.---------------9-12-9-8-----.|
-0-0000-0-0000----------0-0000-0-0000-7-10-7-6-|--0-0000-0-0000-7-10-7-6------|
 . .... . ....          . .... . ....             . .... . ....|
                          x4                        x4                      x5
|--------------------------|-------------------------|-----------------------|
|.------------------------.|.-----------------------.|.---------------------.|
|--------------------------|-------------------------|-----------------------|
|---------------4---3---4--|-------------------------|-----------------------|
|.---------2----2---1---2-.|.--------------9-12-9-8-.|.------4"--3"--1"-----.|
|-0-000000-0--3---0---0----|-0-0000-0-0000-7-10-7-6--|--0"-3"--3"--3"--1"3"--|
  . ......    .   .   .      . .... . ....
                                                x2
|------------------------------------------------|------------------------------
|.----------------------------------------------.|.-----------------------------
|------------------------------------------------|----------------------TP-HP-HP
|------------------TPHPHP------------------------|--TP-HP-HP--TP-HP-HP-147107107
|.-TPHPHP--TPHPHP-1258585-TPHPHP--2---2---3---5-.|.147107107-147107107-125-85-85
|-1258585-1258585---------858585--0-0-0-0-1-0-3--|-125-85-85-125-85-85----------
                                    .   .   .
                         x2
--------------------------|
-------------------------.|
--------------------------|
-TP HP HP-----------------|
107107107--2---2---3---5-.|
-85-85-85--0-0-0-0-1-0-3--|
             .   .   .

  Visit MetalTabs.com for more metal tablature

bottom separator

Contact Us | Privacy Policy | Disclaimer | Legal Notice
Copyright © 2001-2014 MetalTabs.com. All Rights Reserved.