top separator

Home

Forum

What's New

Submit a Tab

FAQ

Links

Contact Us

Link to Us

MetalTabs.com logo

Bands

0-9

A

B

C

D

E

F

G

H

I

J

K

L

M

N

O

P

Q

R

S

T

U

V

W

X

Y

Z

Search

What

Where
 

Rebaelliun - "At War" Guitar Tab

Plain Text Version
More Rebaelliun Tabs

Hits: 1672
Updated: 2006-12-18 01:23:45

 

By:

Tjaial

sendpm.gif

email.gif

Important note
We did our best to reach Rebaelliun and ask for their permission to publish this tab. Unfortunately they did not respond to our requests or we could not find a way to contact them. This tab is available online until Rebaelliun tells us to take it down.


#----------------------------------PLEASE NOTE---------------------------------#
#This file is the author's own work and represents their interpretation of the #
#song. You may only use this file for private study, scholarship, or research. #
#Unless specified otherwise, this is NOT an official tab from the band members.#
#------------------------------------------------------------------------------#

  Visit MetalTabs.com for more metal tablature
  
Band:  Rebealliun
Album: Burn The Promised Land
Song:  At War

Transcribed By: Tjaial
Email:          Tjaial@aol.com
Copyright (c)   HammerHeart

.  - palm mute           /  - slide up to
\  - slide down to       ~  - vibrato
h  - hammer on           b  - Bend
p  - pull off            Suffixes for bend
t  - tap                 f  - full bend    h - half bend
ph - pinched harmonic    q  - quarter bend t - tap bend
*  - see comment         ^  - Hold bend    r release bend
x  - Stuccatto           ~  - vibrato bend
,  - slight palm mute    () - ghost note, sustained note
"  - tremolo note        <> - Trill

Tune to Eb

listen to the song for timing

Intro (00:07)
|---------------------------------------------------|
|---------------------------------------------------|
|---------------------------------------------------|
|---------------------------------------------------|
|---------------------------------------------------|
|-22222222222222222222222222222....-----------------|

Riff 1 (00:21)x4              played at end of 4th time
|-----------------------------|------|
|-----------------------------|------|
|-----------------------------|------|
|-----------------------------|------|
|-----------------------------|-8-9--|
|-52222225222222522252222222--|-6-7--|

Riff 2 (00:28)x4
|-------------------------------------|
|-------------------------------------|
|-------------------------------------|
|--------8--------9--------11----8-9--|
|--------6--------7--------9-----6-7--|
|-000-000--000-000--000-000---000-----|
  ... ...  ... ...  ... ...   ...

Riff 2.1 (00:42)
|-------------------------------------|
|-------------------------------------|
|-------------------------------------|
|-----8-9-----9-11-----11-12-----8-8--|
|-----6-7-----7-9------9--10-----6-6--|
|-000-----000------000-------000------|
  ...     ...      ...       ...
Riff 2.2 (00:46)x2
|----------------------------------------------|
|----------------------------------------------|
|----------------------------------------------|
|-----8-9-----9-11-----11-12-----9-11-----8-8--|
|-----6-7-----7-9------9--10-----7-9------6-6--|
|-000-----000------000-------000------000------|
  ...     ...      ...       ...      ...

Riff 3 (00:54)
|--------------------------|
|--------------------------|
|--------------------------|
|-----2-----2-----2-----2--|
|-----2-----2-----2-----2--|
|-00000-00000-00000-00000--|
  ..... ..... ..... .....

Riff 4 (00:58)
|------------------------------------------------------|
|------------------------------------------------------|
|------------------------------------------------------|
|-------------------------------------------------8-9--|
|-7"-6"-7"-9"--7"-6"-7"-9"--7"-6"-7"-9"--7"-6"-7"-6-7--|
|------------------------------------------------------|

Riff 2.1 (01:02)
Riff 2.2 (01:05)x3

Riff 1.1 (01:19)                                       Played at the end
|-----------------------------------------------------|----------|of riff 1.1
|-----------------------------------------------------|----------|
|----------------------------------------------6-7-7--|-6-6-3-4--|
|----------------------------------------------4-5-5--|-4-5-1-2--|
|-----------------------------------------------------|----------|
|-52222222522222252222252222522252222252222...--------|----------|

Riff 2.1 (01:41)
Riff 2.2 (01:45)x3
Riff 1   (01:58)

Fill (01:58)
|-21~--21~----24~--24~--|
|-----------------------|
|-----------------------|
|-----------------------|
|-----------------------|
|-----------------------|

Riff 5 (02:05)x3
|------------------------------------------------|
|------------------------------------------------|
|------------------------------------------------|
|-9"-2-2-2-2-9"-2-2-2-2-10"-2-2-2-2-10"-2-2-2-2--|
|-7"-2-2-2-2-7"-2-2-2-2-8"--2-2-2-2-8"--2-2-2-2--|
|----0-0-0-0----0-0-0-0-----0-0-0-0-----0-0-0-0--|
     . . . .    . . . .     . . . .     . . . .

Riff 6 (02:28)
|------------------------------------------------------------|
|------------------------------------------------------------|
|------------------------------------------------------------|
|------------------------------------------------------------|
|-------------------------------------------------------8-8--|
|-0"-3"-2"-5"3"5"-0"-3"-2"-5"--0"-3"-2"-5"3"5"-0"-3"-2"-6-6--|

|------------------------------------------------------------|
|------------------------------------------------------------|
|------------------------------------------------------------|
|------------------------------------------------------------|
|-------------------------------------------------------9-9--|
|-0"-3"-2"-5"3"5"-0"-3"-2"-5"--0"-3"-2"-5"3"5"-0"-3"-2"-7-7--|

|------------------------------------------------------------|
|------------------------------------------------------------|
|------------------------------------------------------------|
|------------------------------------------------------------|
|-------------------------------------------------------8-8--|
|-0"-3"-2"-5"3"5"-0"-3"-2"-5"--0"-3"-2"-5"3"5"-0"-3"-2"-6-6--|

|------------------------------------------------------------|
|------------------------------------------------------------|
|------------------------------------------------------------|
|------------------------------------------------------------|
|-------------------------------------------------------8-8--|
|-0"-3"-2"-5"3"5"-0"-3"-2"-5"--0"-3"-2"-5"3"5"-0"-3"-2"-6-6--|

Riff 7 (02:49)
|-----------------------------|
|-----------------------------|
|-----------------------------|
|-9--8--9--11----9--8--9--11--|
|-7--6--7--9-----7--6--7--9---|
|-----------------------------|

Riff 4.1 (02:56)
|-----------------------------------------------------|
|-----------------------------------------------------|
|-----------------------------------------------------|
|-----------------------------------------------------|
|-7"-6"-7"-9"--7"-6"-7"-9"--7"-6"-7"-9"--7"-6"-7"-9"--|
|-----------------------------------------------------|

Riff 4.2 (03:03)
|-----------------------------------------------------|
|-----------------------------------------------------|
|-----------------------------------------------------|
|-----------------------------------------------------|
|-----------------------------------------------------|
|-7"-6"-7"-5"--7"-6"-7"-5"--7"-6"-7"-5"--7"-6"-7"-5"--|

Riff 8 (03:10)x2
|--------------------------------------|
|--------------------------------------|
|--------------------------------------|
|--------------------------------------|x2
|--------------------------------------|
|-52222225222222522252222522222252222--|

|--------------------------------------|
|--------------------------------------|
|--------------------------------------|
|--------------------------------------|x2
|-30000003000000300030000300000003000--|
|--------------------------------------|

Riff 8.1 (03:24)
|-----------------------------------------------------------|
|-----------------------------------------------------------|
|-----------------------------------------------------------|
|-----------------------------------------------------------|
|-41111411141141111-52222522252252222--744447444-855558555--|
|-----------------------------------------------------------|

|------------------------------| * tens and elevens
|------------------------------|
|------------------------------|
|-*-----*-----*-----*-----11\--|
|-10777710777-11888811888-9-\--|
|------------------------------|

END

  Visit MetalTabs.com for more metal tablature

bottom separator

Contact Us | Privacy Policy | Disclaimer | Legal Notice
Copyright © 2001-2014 MetalTabs.com. All Rights Reserved.