top separator

Home

Forum

What's New

Submit a Tab

FAQ

Links

Contact Us

Link to Us

MuSpy.com

MetalTabs.com logo

Bands

0-9

A

B

C

D

E

F

G

H

I

J

K

L

M

N

O

P

Q

R

S

T

U

V

W

X

Y

Z

Search

What

Where
 

Alas - "Absolute Purity" Guitar Tab

Plain Text Version
More Alas Tabs

Hits: 1735
Updated: 2006-12-18 01:23:21

 

By:

Tjaial

sendpm.gif

email.gif

Important note
We did our best to reach Alas and ask for their permission to publish this tab. Unfortunately they did not respond to our requests or we could not find a way to contact them. This tab is available online until Alas tells us to take it down.


#----------------------------------PLEASE NOTE---------------------------------#
#This file is the author's own work and represents their interpretation of the #
#song. You may only use this file for private study, scholarship, or research. #
#Unless specified otherwise, this is NOT an official tab from the band members.#
#------------------------------------------------------------------------------#

  Visit MetalTabs.com for more metal tablature
  
Band:  Alas
Album: Absolute Purity
Song:  Absolute Purity

Transcribed By: Tjaial
Email:          Tjaial@aol.com
Copyright (c)

.  - palm mute           /  - slide up to
\  - slide down to       ~  - vibrato
h  - hammer on           b  - Bend
p  - pull off            Suffixes for bend
t  - tap                 f  - full bend    h - half bend
ph - pinched harmonic    q  - quarter bend t - tap bend
*  - see comment         ^  - Hold bend    r release bend
x  - Stuccatto           ~  - vibrato bend
,  - slight palm mute    () - ghost note, sustained note
"  - tremolo note        <> - Trill

Tuning C# F# B E G# C#
listen to the song for timing

Intro Guitar 1 (00:00)x2
|------------------------------------------------------------------|
|------------------------------------------------------------------|
|-6-4-6\-7-6-7\-6-4-6\-4-2-4\--6-4-6\-7-6-7\-------7-6h7p6-----7~--|
|--------------------------------------------7-6-7---------7-6-----|
|------------------------------------------------------------------|
|------------------------------------------------------------------|
                                             . . .         . .
|------------------------------------------------------------------|
|------------------------------------------------------------------|
|-6-4-6\-7-6-7\-6-4-6\-4-2-4\--6-4-6\-7-6-7\-------7-6h7p6---------|
|--------------------------------------------7-6-7---------7-6-4~--|
|------------------------------------------------------------------|
|------------------------------------------------------------------|
                                             . . .         . .
Additional Guitar (00:00)x4
|-----------------------|
|-----------------------|
|-----------------------|
|-4-/4--2------4-/4--2--|
|-2-----0--6---2-----0--|
|----------4------------|
Guitar 2 (00:00)x2
|-------------------------------------------------------------------|
|--------7-5-7\--------5-3-5\---------7-5-7\------------------------|
|---------------6-4-6\----------------------------------------------|
|-7-6-7\-----------------------7-6-7\---------------2-2h3p2-----2~--|
|---------------------------------------------5-4-5---------5-4-----|
|-------------------------------------------------------------------|
                                              . . . .       . .
|-------------------------------------------------------------------|
|--------7-5-7\--------5-3-5\---------7-5-7\------------------------|
|---------------6-4-6\----------------------------------------------|
|-7-6-7\-----------------------7-6-7\---------------2-2h3p2---------|
|---------------------------------------------5-4-5---------5-4-2~--|
|-------------------------------------------------------------------|
                                              . . . .       . .
(00:35)
Acoustic Guitar part:?


Riff 1 (00:58)
|-----------------------------------------------------|
|-----------------------------------------------------|
|-----------------------------------------------------|
|-4-4444-4-444-4-444---------2-222-5-555-555----------|
|-2-2222-2-222-2-222-2h3-3p2-0-000-3-333-333-3h5-5p3--|
|-----------------------------------------------------|
    ....   ...   ...           ...   ... ...

|-----------------------------------------------------|
|-----------------------------------------------------|
|-----------------------------------------------------|
|-4-4444-4-444-4-444---------5-555-5-555-555----------|
|-2-2222-2-222-2-222-3h5-5p3-3-333-3-333-333-3h5-5p3--|
|-----------------------------------------------------|
    ....   ...   ...           ...   ... ...

|-----------------------------------------------------|
|-----------------------------------------------------|
|-----------------------------------------------------|
|-4-4444-4-444-4-444---------2-222-5-555-555----------|
|-2-2222-2-222-2-222-2h3-3p2-0-000-3-333-333-3h5-5p3--|
|-----------------------------------------------------|
    ....   ...   ...           ...   ... ...

|-----------------------------------------------------|
|-----------------------------------------------------|
|-----------------------------------------------------|
|-4-4444-4-444-4-444---------5-555-5-555-555----------|
|-2-2222-2-222-2-222-3h5-5p3-3-333-3-333-333-5h3-5p3--|
|-----------------------------------------------------|
    ....   ...   ...           ...   ... ...

Riff 2 Guitar 1 (01:22)x2
|------------------------------------------------|
|-------3p2-3h5-5p3-3-3--------3p2-3h5-5p3-3-----|
|--------------------------------------------2~--|
|-4-4-4------------------4-4-4-------------------|
|-2-2-2------------------2-2-2-------------------|
|------------------------------------------------|
  . . .                  . . .
|---------------------------------------------------|
|-------3p2-3h5-5p3-3-------------------------------|
|---------------------------------------------------|
|-4-4-4------------------------4-----0h4-2-2h5-4----|
|-2-2-2----------------5-4-2-4---5-4-------------5--|
|---------------------------------------------------|
  . . .
Guitar 2 (01:22)x2
|------------------------------------3-3-2-------|
|-------3p2-3h5-5p3-3-3--------3p2-2-------3-----|
|--------------------------------------------2~--|
|-4-4-4------------------4-4-4-------------------|
|-2-2-2------------------2-2-2-------------------|
|------------------------------------------------|
  . . .                  . . .
|---------------------------------------------------|
|-------3p2-3h5-5p3-3-------------------------------|
|--------------------------------------------4-2----|
|-4-4-4------------------------4-----0-5-4-4-----4--|
|-2-2-2----------------5-4-2-4---5-4----------------|
|---------------------------------------------------|
  . . .

(01:45)
Same Acoustic Guitar part:?

Riff 1 (02:08)x2
Riff 2 (02:31)x2*

*At the end of riff 2 play this instead(02:51)
Guitar 1
|--------------------|
|--------------------|
|--------------------|
|-------5-4----------|
|-5-4-2-----5-4-5-4--|
|--------------------|
Guitar 2
|----------------------|
|----------------------|
|-------/4-2-----------|
|------------4-2-/5-2--|
|-5-4-2----------------|
|----------------------|

Riff 3 Guitar 1(02:55)x6                                Add on the last time
|------------------------------------------------------||--------|played
|------------------------------------------------------||--------|*
|------------------------------------------------------||--------|
|------------------------------------------------------||--------|
|-2-5-4-2-4-2-1-/7-2-4p2-1-2h4--2-5-4-2-4p2-7-5-4-2-1--||-5-1-2--|
|------------------------------------------------------||--------|
Guitar 2(02:55)x6
|----------------------------------------------------------||--------|*
|----------------------------------------------------------||--------|
|----------------------------------------------------------||--------|
|---4-2---------------------------4-2-4-2-0-2-4-5-4-2------||--------|
|-5-----5-7-5-4-/7-5-7p5-4-5h7--5---------------------5-4--||-5-4-5--|
|----------------------------------------------------------||--------|

Solo (03:18)
|-10-9-7-10~--12-10h12p10-12/14-15-12~--14-12h14p12-14/19-19--|
|-------------------------------------------------------------|
|-------------------------------------------------------------|
|-------------------------------------------------------------|
|-------------------------------------------------------------|
|-------------------------------------------------------------|

|-17-15\14-14/17-17\15-15\12-12/15-15\14-14\12-15-14~~~~--|
|---------------------------------------------------------|
|---------------------------------------------------------|
|---------------------------------------------------------|
|---------------------------------------------------------|
|---------------------------------------------------------|

|-12-10-9-10-12-10h12p10-9-10--19-17-19-17-15-17-15-----------------|
|---------------------------------------------------17-20-19-17-19--|
|-------------------------------------------------------------------|
|-------------------------------------------------------------------|
|-------------------------------------------------------------------|
|-------------------------------------------------------------------|

|-----------------------15/17-17-17~--19-19-15-14-15\14-17-17----------|
|-17"-19"-20"-19"-17\15---------------------------------------17-17-17-|
|----------------------------------------------------------------------|
|----------------------------------------------------------------------|
|----------------------------------------------------------------------|
|----------------------------------------------------------------------|

|-14-14h15p14------------------------------------------------------|
|-------------17-15-17--17h19-15-15h17-14-14h15-14-15-17-15-14-15--|
|------------------------------------------------------------------|
|------------------------------------------------------------------|
|------------------------------------------------------------------|
|------------------------------------------------------------------|

|--------------------------------------------12/14-----------|
|-12-14-15-14~-12-14-12--14-14h15p14-----17~-------15-14-17--|
|-------------------------------------16---------------------|
|------------------------------------------------------------|
|------------------------------------------------------------|
|------------------------------------------------------------|

|----------------------------------------------------------------------|
|-15-14-15-14-12-11-12-11h12p11----11----------------------------------|
|-------------------------------12----12-11----------------------------|
|-------------------------------------------14-12-11-12-11~--12-14-14--|
|----------------------------------------------------------------------|
|----------------------------------------------------------------------|

|-------------------------------------------------------------------|
|-------------------------------------------------------------------|
|-------------------------------------------------------------------|
|-12-14-14/17-16-16--12-14-16-14-12-14-12--14-16p14h16-17-----------|
|-------------------------------------------------------------------|
|-------------------------------------------------------------------|

|-------------------------------------------------------------------------|
|-------------------------------------------------------------------------|
|-------------------------------------------------------------------------|
|-19p17p16-16-17-16h17p16-14-16--16-17-14-16-12-12/14-14-12-11-12p11-12\--|
|-------------------------------------------------------------------------|
|-------------------------------------------------------------------------|

END

  Visit MetalTabs.com for more metal tablature

bottom separator

Contact Us | Privacy Policy | Disclaimer | Legal Notice
Copyright © 2001-2014 MetalTabs.com. All Rights Reserved.