top separator

Home

Forum

What's New

Submit a Tab

FAQ

Links

Contact Us

Link to Us

MuSpy.com

MetalTabs.com logo

Bands

0-9

A

B

C

D

E

F

G

H

I

J

K

L

M

N

O

P

Q

R

S

T

U

V

W

X

Y

Z

Search

What

Where
 

Gelida Obscuritas - "Mutilation" Guitar Tab

Plain Text Version
More Gelida Obscuritas Tabs

Hits: 1454
Updated: 2006-12-18 01:02:12

 

By:

sendpm.gif

email.gif

Important note
This tab is available online because we obtained explicit permission from Gelida Obscuritas or their label.


#----------------------------------PLEASE NOTE---------------------------------#
#This file is the author's own work and represents their interpretation of the #
#song. You may only use this file for private study, scholarship, or research. #
#Unless specified otherwise, this is NOT an official tab from the band members.#
#------------------------------------------------------------------------------#

  Visit MetalTabs.com for more metal tablature
  
Band: Gelida Obscuritas
Album: Heart Of Chaos
Label: Gravestench Production
Song: Mutilation
Tabbed by: Lex88
Tuning: Standart(E)

========================
P.M. = Palm mute
N.H. = Artifical harmonic
========================

Riff 1:(tremolo)
|----------------------------------|
|----------------------------------|
|----------------------------------|
|----------------------------------|
|---7-5-----7-5------------------7-|
|-5-----7-5-----5-7-8-7-8-10-7-8---|


Riff 2(tremolo)
|---------------------|
|---------------------|
|---------------------|
|-8-7-8-7-12-11-8-7-5-|
|-6-5-6-5-10--9-6-5-3-|
|---------------------|


Riff 3        |1.           |2.
|-------------|-------------|-----------|
|-------------|-------------|-----------|
|-------------|-------------|-----------|
|-------------|-------------|-----------|
|---------5-7-|-8---8-------|-<8>---<8>-|
|-5-5-7-8-----|---7---7-8-7-|-----7-----|
                    PM. . .   AH.   AH.

Riff 4(Tremolo Shit like as Riff2)

  Visit MetalTabs.com for more metal tablature

bottom separator

Contact Us | Privacy Policy | Disclaimer | Legal Notice
Copyright © 2001-2014 MetalTabs.com. All Rights Reserved.