top separator

Home

Forum

What's New

Submit a Tab

FAQ

Links

Contact Us

Link to Us

MetalTabs.com logo

Bands

0-9

A

B

C

D

E

F

G

H

I

J

K

L

M

N

O

P

Q

R

S

T

U

V

W

X

Y

Z

Search

What

Where
 

Blood Freak - "The Gruesome Gorehounds" Guitar Tab

Plain Text Version
More Blood Freak Tabs

Hits: 1497
Updated: 2006-12-17 21:27:23

 

By:

azagthoth_666

sendpm.gif

email.gif

Important note
This tab is available online because we obtained explicit permission from Blood Freak or their label.


#----------------------------------PLEASE NOTE---------------------------------#
#This file is the author's own work and represents their interpretation of the #
#song. You may only use this file for private study, scholarship, or research. #
#Unless specified otherwise, this is NOT an official tab from the band members.#
#------------------------------------------------------------------------------#

  Visit MetalTabs.com for more metal tablature
  
Band:  BLOOD FREAK
Album: SLEAZE MERCHANTS
Song:  THE GRUESOME GOREHOUNDS

Copyright (c) Razorback Records, 2003
Version 1.0, 08/28/06

Transcribed By: Bobby Rafuse
Email: lathotep666@hotmail.com

.  - palm mute           /  - slide up to
\  - slide down to       ~  - vibrato
h  - hammer on           b  - Bend
p  - pull off            Suffixes for bend
t  - tap                 f  - full bend    h - half bend
ph - pinched harmonic    q  - quarter bend t - tap bend
*  - see comment         ^  - Hold bend    r release bend
x  - Stuccatto           ~  - vibrato bend
,  - slight palm mute    () - ghost note, sustained note
"  - tremolo note        tr - Trill

Tuning A D G C E A

RIFF 1 (4x)
|---------------------------------|
|---------------------------------|
|---------------------------------|
|---------------------------------|
|-2---2---3-2-1---4---4---5-4-3---|
|-0---0-----------2---2-----------|


RIFF 2a
|---------------------------------|---------------------------------|
|---------------------------------|---------------------------------|
|---------------------------------|---------------------------------| Gtr.
|---------------------------------|---------------------------------|  1
|---------44444444--------55443333|---------444444445---8---4---7---|
|-00002222--------00002222--------|-00002222--------3---6---2---5---|
|                                                                   |
|---------------------------------|---------------------------------|
|---------------------------------|---------------------------------|
|---------------------------------|---------------------------------| Gtr.
|---------------------------------|---------------------------------|  2
|-2-------------------------------|-----------------5---8---4---7---|
|-0-------------------------------|-----------------3---6---2---5---|

(cont.)
|---------------------------------|---------------------------------|
|---------------------------------|---------------------------------|
|---------------------------------|---------------------------------| Gtr.
|-------------------------7-6-5---|---------------------------------|  1
|---------44444444--------5-4-3---|---------444444445---8---4---7---|
|-00002222--------00002222--------|-00002222--------3---6---2---5---|
|                                                                   |
|---------------------------------|---------------------------------|
|---------------------------------|---------------------------------|
|---------------------------------|---------------------------------| Gtr.
|-------------------------7-6-5---|---------------------------------|  2
|-2-----------------------5-4-3---|-2---------------5---8---4---7---|
|-0-------------------------------|-0---------------3---6---2---5---|


RIFF 2b (2x)
|---------------------------------|---------------------------------|
|---------------------------------|---------------------------------|
|---------------------------------|---------------------------------|
|---------------------------------|---------------------------------|
|---------44444444--------55443333|---------44444444----------------|
|-00002222--------00002222--------|-00002222--------3333666622225555|


RIFF 3a (2x)
|---------------------------------|---------------------------------|
|---------------------------------|---------------------------------|
|---------------------------------|---------------------------------|
|---------------------------------|-----------------6-6-6-6-5-5-5-5-|
|-6-6-6-6-6-6-6-6-7-7-7-7-7-7-7-7-|-4-4-4-4-4-4-4-4-4-4-4-4-3-3-3-3-|
|-4-4-4-4-4-4-4-4-5-5-5-5-5-5-5-5-|-2-2-2-2-2-2-2-2-----------------|
PM  . . . . . . .   . . . . . . .     . . . . . . .   . . .   . . .


Repeat RIFF 2b (2x)

Repeat RIFF 3a (2x)


RIFF 3b (2x) *NOTE*Any takers on lead gtr pt would be killer
|---------------------------------|---------------------------------|
|---------------------------------|---------------------------------|
|---------------------------------|---------------------------------|
|---------------------------------|-----------------6-------5-------|
|-6-----------6-6-7---------------|-4---------------4-------3-------|
|-4-----------4-4-5---------------|-2-------------------------------|
PM            . .


Repeat RIFF 1 (4x)


END ON
|-----------------|
|-----------------|
|-----------------|
|-----------------|
|-2---------------|
|-0---------------|

  Visit MetalTabs.com for more metal tablature

bottom separator

Contact Us | Privacy Policy | Disclaimer | Legal Notice
Copyright © 2001-2014 MetalTabs.com. All Rights Reserved.