top separator

Home

Forum

What's New

Submit a Tab

FAQ

Links

Contact Us

Link to Us

MetalTabs.com logo

Bands

0-9

A

B

C

D

E

F

G

H

I

J

K

L

M

N

O

P

Q

R

S

T

U

V

W

X

Y

Z

Search

What

Where
 

Blood Freak - "Goretits" Guitar Tab

Plain Text Version
More Blood Freak Tabs

Hits: 1620
Rated: 5.00 out of 5 (1 vote)
Updated: 2006-12-17 21:27:07

 

By:

azagthoth_666

sendpm.gif

email.gif

Important note
This tab is available online because we obtained explicit permission from Blood Freak or their label.


#----------------------------------PLEASE NOTE---------------------------------#
#This file is the author's own work and represents their interpretation of the #
#song. You may only use this file for private study, scholarship, or research. #
#Unless specified otherwise, this is NOT an official tab from the band members.#
#------------------------------------------------------------------------------#

  Visit MetalTabs.com for more metal tablature
  
Band:  BLOOD FREAK
Album: LIVE FAST, DIE YOUNG... AND LEAVE A FLESH-EATING CORPSE
Song:  GORETITS

Copyright (c) Razorback Records, 2006
Version 1.0, 12/06/06

Transcribed By: Bobby Rafuse
Email: lathotep666@hotmail.com

.  - palm mute           /  - slide up to
\  - slide down to       ~  - vibrato
h  - hammer on           b  - Bend
p  - pull off            Suffixes for bend
t  - tap                 f  - full bend    h - half bend
ph - pinched harmonic    q  - quarter bend t - tap bend
*  - see comment         ^  - Hold bend    r release bend
x  - Stuccatto           ~  - vibrato bend
,  - slight palm mute    () - ghost note, sustained note
"  - tremolo note        tr - Trill

Tuning B E A D F# B

*NOTE* Listen to song for correct timing


RIFF 1 (3x's)
|-------------------------------------------------------------|-
|-------------------------------------------------------------|-
|-5-------------------------------5-------7-------8-----------|-
|-5--7------------3--2------------5--7----7--7----8--7--------|-
|----7--0-0-0-0-0-1--0--0-0-0-0-0----7--0----7--0----7--0-0-0-|-
|-------------------------------------------------------------|-
PM      . . . . .       . . . . .       .       .       . . .
(cont.)
|----------------------------------------------------------------------|-
|----------------------------------------------------------------------|-
|----------------------------------------------------------------------|-
|-10-9---------------10-9--------------10-9--7--7--7--10-10-10-12--12--|-
|-8--7--10-10-101010-8--7--8--8--8-8-8-8--7--5--5--5--8--8--8--10--10--|-
|-------8--8--8-8-8--------6--6--6-6-6---------------------------------|-
PM            . . .              . . .             .        .
(cont.)
|--------------------|
|--------------------|
|--------------------|
|-12-12-12-12-12-12--|
|-10-10-10-10-10-10--|
|--------------------|
PM .  .  .  .  .  .


RIFF 2
|--------------------------------------------------------------------|
|--------------------------------------------------------------------|
|-----------------7---5---2------------------------------------------|
|-----------------7---5---2---2-2-2--5--7--7---------5--7--7---------|
|-5---2--2---------------------------3--5--5--5-5-5--3--5--5--5-5-5--|
|-3---0--0--0-0-0----------------------------------------------------|
PM          . . .             . . .           . . .           . . .


Repeat RIFF 1 (2x's)

Repeat RIFF 2 (2x's)


RIFF 3 (repeat till fade out)
|-------------------------------------------------------|-
|-------------------------------------------------------|-
|----------------------------------------------5--------|-
|-2-----------9-9-9-9-9-7---5-------5--7~---------7~----|-
|-0-----------7-7-7-7-7-5---3---------------------------|-
|-------------------------------------------------------|-

|--------------------------------------------------|
|--------------------------------------------------|
|--------------------------------------------------|
|-2-----------9-9-9-9-9-7---5-------5--7~----------|
|-0-----------7-7-7-7-7-5---3----------------3b----|
|--------------------------------------------------|

  Visit MetalTabs.com for more metal tablature

bottom separator

Contact Us | Privacy Policy | Disclaimer | Legal Notice
Copyright © 2001-2014 MetalTabs.com. All Rights Reserved.