top separator

Home

Forum

What's New

Submit a Tab

FAQ

Links

Contact Us

Link to Us

MetalTabs.com logo

Bands

0-9

A

B

C

D

E

F

G

H

I

J

K

L

M

N

O

P

Q

R

S

T

U

V

W

X

Y

Z

Search

What

Where
 

Blood Freak - "Butchermobile" Guitar Tab

Plain Text Version
More Blood Freak Tabs

Hits: 1707
Updated: 2006-12-17 21:26:57

 

By:

azagthoth_666

sendpm.gif

email.gif

Important note
This tab is available online because we obtained explicit permission from Blood Freak or their label.


#----------------------------------PLEASE NOTE---------------------------------#
#This file is the author's own work and represents their interpretation of the #
#song. You may only use this file for private study, scholarship, or research. #
#Unless specified otherwise, this is NOT an official tab from the band members.#
#------------------------------------------------------------------------------#

  Visit MetalTabs.com for more metal tablature
  
Band:  BLOOD FREAK
Album: LIVE FAST, DIE YOUNG... AND LEAVE A FLESH-EATING CORPSE
Song:  BUTCHERMOBILE

Copyright (c) Razorback Records, 2006
Version 1.0, 12/08/06

Transcribed By: Bobby Rafuse
Email: lathotep666@hotmail.com

.  - palm mute           /  - slide up to
\  - slide down to       ~  - vibrato
h  - hammer on           b  - Bend
p  - pull off            Suffixes for bend
t  - tap                 f  - full bend    h - half bend
ph - pinched harmonic    q  - quarter bend t - tap bend
*  - see comment         ^  - Hold bend    r release bend
x  - Stuccatto           ~  - vibrato bend
,  - slight palm mute    () - ghost note, sustained note
"  - tremolo note        tr - Trill

Tuning B E A D F# B


RIFF 1 (4x's)
|---------------------------------|--------------------------------|
|---------------------------------|--------------------------------|
|---------------------------------|--------------------------------|
|---------------------------------|--------------------------------|
|---------------------------------|------------------------5555----|
|-00000000666666665555555511111111|000000006666666655556666----6666|


RIFF 2 (2x's)
|---------------------------------|--------------------------------|
|---------------------------------|--------------------------------|
|---------------------------------|--------------------------------|
|---------------------------------|--------------------------------|
|-----------------5555555555555555|--------------------------------|
|-2222222222222222----------------|11111111111111115555666655553333|


Repeat RIFF 1 (2x's)

Repeat RIFF 2 (2x's)


RIFF 3 (2x's)
|---------------------------------|--------------------------------|
|---------------------------------|--------------------------------|
|---------------------------------|--------------------------------|
|---------------------------------|--------------------------------|
|-4---4-4---4-444-2---2-2---2-222-|5---5-5---5-555-7---7-7---7-7-7-|
|-2---2-2---2-222-0---0-0---0-000-|3---3-3---3-333-5---5-5---5-5-5-|
PM    .     . ...     .     . ...      .     . ...


RIFF 4 (4x's) [unsure of the end of this riff]
|---------------------------------|--------------------------------|
|---------------------------------|--------------------------------|
|---------------------------------|--------------------------------|
|---------------------------------|----------------------------0tr2|
|-2---2-2-2-2-2-2-2-2-2-2-2-2-5---|2---2-2-2-2-2-2-1---------------|
|-0---0-0-0-0-0-0-0-0-0-0-0-0-3---|0---0-0-0-0-0-0---3-2-0-2-3-----|
PM    . . . . . . . . . . . .          . . . . . .


Repeat RIFF 3


END ON
|-----------------|
|-----------------|
|-----------------|
|-----------------|
|-2---------------|
|-0---------------|

  Visit MetalTabs.com for more metal tablature

bottom separator

Contact Us | Privacy Policy | Disclaimer | Legal Notice
Copyright © 2001-2014 MetalTabs.com. All Rights Reserved.