top separator

Home

Forum

What's New

Submit a Tab

FAQ

Links

Contact Us

Link to Us

MuSpy.com

MetalTabs.com logo

Bands

0-9

A

B

C

D

E

F

G

H

I

J

K

L

M

N

O

P

Q

R

S

T

U

V

W

X

Y

Z

Search

What

Where
 

Cock and Ball Torture - "Enema Bulldozer" Guitar Tab

Plain Text Version
More Cock and Ball Torture Tabs

Hits: 5276
Updated: 2006-12-17 21:26:42

 

By:

aXeBastard

sendpm.gif

email.gif

Important note
This tab is available online because we obtained explicit permission from Cock and Ball Torture or their label.


#----------------------------------PLEASE NOTE---------------------------------#
#This file is the author's own work and represents their interpretation of the #
#song. You may only use this file for private study, scholarship, or research. #
#Unless specified otherwise, this is NOT an official tab from the band members.#
#------------------------------------------------------------------------------#

  Visit MetalTabs.com for more metal tablature
  
Band:  Cock and Ball Torture
Album: Sadochismo
Song:  Enema Bulldozer

Copyright (c)  Shredded Records
Version 1.0 -  8/12/06

Transcribed By: aXeBastard
Email:          Smashed_Face@msn.com


.  - palm mute                /  - slide up to
\  - slide down to           ~  - vibrato
h  - hammer on             b  - Bend
p  - pull off                  Suffixes for bend
 t  - tap                          f  - full bend    h - half bend
ph - pinched harmonic    q  - quarter bend t - tap bend
 *  - see comment         ^  - Hold bend    r release bend
 x  - Stuccatto               ~  - vibrato bend
 ,  - slight palm mute      () - ghost note, sustained note
 "  - tremolo note         <> - Trill


Tuning: Standard A

|--------------------------------------------|Intro - Guitar 1
|--------------------------------------------|
|--------------------------------------------|
|--------------------6-----------------------|
|-4/5--2--3/4--2--2--4--4/5--2--3/4--2--2--4-|
|-2/3--0--1/2--0--0--4--2/3--0--1/2--0--0--4-|
|      .       .  .          .       .  .
|
|--------------------------------------------|Guitar 2
|--------------------------------------------|
|--------------------------------------------|
|--------------------------------------------|
|------------------------------------2--2--4-|
|------------------------------------0--0--4-|
                                     .  .

|--------------------------------------------|Riff 1 - Both Guitars
|--------------------------------------------|
|--------------------------------------------|
|--------------------6-----------------------|
|-4/5--2--3/4--2--2--4--4/5--2--3/4--2--2--4-|
|-2/3--0--1/2--0--0--4--2/3--0--1/2--0--0--4-|
       .       .  .          .       .  .

|----------------------------------------|Riff 2 - Both Guitars
|----------------------------------------|
|----------------------------------------|
|----------------------------------------|
|-8--5--3--2--8--5-----8--5--3--2--3-----|
|-6--3--1--0--6--3-----6--3--1--0--1-----|
                                .

|----------------------------------------|Riff 3 part 1 - Both Guitars
|----------------------------------------|
|----------------------------------------|
|----------------------------------------|
|-8--5--3--2--8--5-----8--5--3--2--3-----|
|-6--3--1--0--6--3-----6--3--1--0--1-----|
  .  .  .  .           .  .  .  .

|----------------------------------------------|Riff 3 part 2 - Both Guitars
|----------------------------------------------|
|----------------------------------------------|
|----------------------------------------------|
|-8--5--3--2--8--5-----8--5--3--2--5---4---3---|
|-6--3--1--0--6--3-----6--3--1--0--3---2---1---|
  .  .  .  .           .  .  .  .  .   .   .

|-------------------------|Riff 4 - Both Guitars
|-------------------------|
|-------------------------|
|-------------------------|
|-5--6--9-----9--5--3--2--|
|-3--4--7--0--7--3--1--0--|


|-------------------------|Riff 5 - Both Guitars
|-------------------------|
|-------------------------|
|-------------------------|
|-5--6--9-----------------|
|-3--4--7--0--------------|


|-------------------------|Riff 5 part 2 - Both Guitars
|-------------------------|
|-------------------------|
|-------------------------|
|-5--6--9-----5---4---3---|
|-3--4--7--0--3---2---1---|
              .   .   .

|--------------------------------------------|-------------|Riff 6
|----Play-X2--Then-Stop----------------------|-X1-After----|
|--------------------------------------------|-Short-Break-|Both Guitars
|--------------------6-----------------------|-------------|
|-4/5--2--3/4--2--2--4--4/5--2--3/4--2--2--4-|-12/1--0-0-0-|
|-2/3--0--1/2--0--0--4--2/3--0--1/2--0--0--4-|-12/1--0-0-0-|
       .       .  .          .       .  .            . . .

  Visit MetalTabs.com for more metal tablature

bottom separator

Contact Us | Privacy Policy | Disclaimer | Legal Notice
Copyright © 2001-2014 MetalTabs.com. All Rights Reserved.