top separator

Home

Forum

What's New

Submit a Tab

FAQ

Links

Contact Us

Link to Us

MuSpy.com

MetalTabs.com logo

Bands

0-9

A

B

C

D

E

F

G

H

I

J

K

L

M

N

O

P

Q

R

S

T

U

V

W

X

Y

Z

Search

What

Where
 

Aria (RU) - "Splinter of Ice" Guitar Tab

Plain Text Version
More Aria (RU) Tabs

Hits: 1630
Rated: 5.00 out of 5 (2 votes)
Updated: 2006-12-17 21:23:05

 

By:

sendpm.gif

email.gif

Important note
This tab is available online because we obtained explicit permission from Aria (RU) or their label.


#----------------------------------PLEASE NOTE---------------------------------#
#This file is the author's own work and represents their interpretation of the #
#song. You may only use this file for private study, scholarship, or research. #
#Unless specified otherwise, this is NOT an official tab from the band members.#
#------------------------------------------------------------------------------#

  Visit MetalTabs.com for more metal tablature
  
Band:  Aria
Album: Chimera
Song: A splinter of ice

Copyright (c)  Classic company 2001
Version 1.0 - 29/11/2006

Transcribed By: Konstantin Morozov
Email:          snoiprocks@yahoo.com


.  - palm mute           /  - slide up to
\  - slide down to       ~  - vibrato
h  - hammer on           b  - Bend
p  - pull off            Suffixes for bend
t  - tap                 f  - full bend    h - half bend
ph - pinched harmonic    q  - quarter bend t - tap bend
*  - see comment         ^  - Hold bend    r release bend
x  - Stuccatto           ~  - vibrato bend
,  - slight palm mute    () - ghost note, sustained note
"  - tremolo note        <> - Trill

Tuning E A D G B E

Intro:

  Am                                F
|----------0-----0-----0-----0-----0--------1-----1-----1-----1-----1-|
|--------1---1-----0-----0-----0----------1---1-----1-----1-----1-----|
|------2-------2-----2-----2-----2------2-------2-----2-----2-----2---|
|----2--------------------------------3-------------------------------|
|--0--------------------------------3---------------------------------|
|---------------------------------------------------------------------|

  Dm*                                Am
|----------0-----0-----0-----0-----0---------0-----0-----0-----0-----0|
|--------3---3-----3-----3-----3-----------1---1-----0-----1-----1----|
|------2-------2-----2-----2-----2-------2-------2-----2-----2-----2--|
|----0---------------------------------2------------------------------|
|--0---------------------------------0--------------------------------|
|---------------------------------------------------------------------|
(played 2 times)


Verse:

   Am                              C
|-------------------------------------------------------------------|
|------1---0---1-------1---0---1-------1---0---1-------1---0---1----|
|----2---2---2---2---2---2---2---2---0---0---0---0---0---0---0---0--|
|-------------------------------------------------------------------|
|--0---------------0---------------3---------------3----------------|
|-------------------------------------------------------------------|

   F               G           Am
|-------------------------------------------------------------------|
|------1---0---1-------5---3---5-------1---0---1---3---1---0---1----|
|----2---2---2---2---4---4---4---4---2---2---2---2---2---2---2---2--|
|--3---------------5------------------------------------------------|
|----------------------------------0--------------------------------|
|-------------------------------------------------------------------|

Chorus:

   F               G           Am
|-------------------------------------------------------------------|
|------1---0---1-------5---3---5-------1---0---1---3---1---0---1----|
|----2---2---2---2---4---4---4---4---2---2---2---2---2---2---2---2--|
|--3---------------5------------------------------------------------|
|----------------------------------0--------------------------------|
|-------------------------------------------------------------------|

   F               G           Am
|-------------------------------------------------------------------|
|------1---0---1-------5---3---5-------1---0---1---3---1---0---1----|
|----2---2---2---2---4---4---4---4---2---2---2---2---2---2---2---2--|
|--3---------------5------------------------------------------------|
|----------------------------------0--------------------------------|
|-------------------------------------------------------------------|

   F               G               C    Em     Am
|-------------------------------------------------------------------|
|------1---0---1-------5---3---5-------------------1---0---1--------|
|----2---2---2---2---4---4---4---4-----0-----0---2---2---2---2------|
|--3---------------5-----------------2-----2------------------------|
|----------------------------------3-----2-----0--------------------|
|-------------------------------------------------------------------|

   F               G               D
|------------------------------------------2-----2---------2-----2--|
|------1---0---1-------5---3---5-------3-----3---------3-----3------|
|----2---2---2---2---4---4---4---4---2---2-----2-----2---2-----2----|
|--3---------------5---------------0---------------0----------------|
|-------------------------------------------------------------------|
|-------------------------------------------------------------------|

  Dm
|----------1-----1---------1-----1----------------------------------|
|------3-----3---------3-----3--------------------------------------|
|----2---2-----2-----2---2-----2------------------------------------|
|--0---------------0------------------------------------------------|
|-------------------------------------------------------------------|
|-------------------------------------------------------------------|


Solo part:

  Am    Em     F     G    Am    Em      F     G    Am     F     G
|--0-----0-----1-----3-----00-----0-----1-----3-----55-----1-----3---|
|--1-----0-----1-----3-----11-----0-----1-----3-----55-----1-----3---|
|--2-----0-----2-----4-----22-----0-----2-----4-----55-----2-----4---|
|--2-----2-----3-----5-----22-----2-----3-----5-----77-----3-----5---|
|--0-----2-----3-----5-----00-----2-----3-----5-----77-----3-----5---|
|--x-----0-----1-----3-----xx-----0-----1-----3-----55-----1-----3---|

  Am      F     G     Am     F     G     Am     F     G     D    Dm
|--55-----1-----3-----55-----1-----3-----55-----1-----3-----2-----1--|
|--55-----1-----3-----55-----1-----3-----55-----1-----3-----3-----3--|
|--55-----2-----4-----55-----2-----4-----55-----2-----4-----2-----2--|
|--77-----3-----5-----77-----3-----5-----77-----3-----5-----0-----0--|
|--77-----3-----5-----77-----3-----5-----77-----3-----5-----x-----x--|
|--55-----1-----3-----55-----1-----3-----55-----1-----3-----x-----x--|
(Am is played twice longer)


END

  Visit MetalTabs.com for more metal tablature

bottom separator

Contact Us | Privacy Policy | Disclaimer | Legal Notice
Copyright © 2001-2014 MetalTabs.com. All Rights Reserved.