top separator

Home

Forum

What's New

Submit a Tab

FAQ

Links

Contact Us

Link to Us

MuSpy.com

MetalTabs.com logo

Bands

0-9

A

B

C

D

E

F

G

H

I

J

K

L

M

N

O

P

Q

R

S

T

U

V

W

X

Y

Z

Search

What

Where
 

As I Lay Dying - "94 Hours" Bass Tab

Plain Text Version
More As I Lay Dying Tabs

Hits: 4789
Rated: 5.00 out of 5 (3 votes)
Updated: 2006-12-17 21:22:47

 

By:

sendpm.gif

email.gif

Important note
This tab is available online because we obtained explicit permission from As I Lay Dying or their label.


#----------------------------------PLEASE NOTE---------------------------------#
#This file is the author's own work and represents their interpretation of the #
#song. You may only use this file for private study, scholarship, or research. #
#Unless specified otherwise, this is NOT an official tab from the band members.#
#------------------------------------------------------------------------------#

  Visit MetalTabs.com for more metal tablature
  
Band:  As I Lay Dying
Album: Frail Words Collapse
Song:  94 Hours

Copyright (c) - Metal Blade Records. 2003
Version 1.0 - December 5th, 2006

Transcribed By: Tommy Greenham
Email:          alexisonfire_01@hotmail.com


h= hammer on
p= pull off
~= let ring
v= bend

intro:

|---|-----------|--------|-----------|--------|
|---|-----------|--------|-----------|--------|
|---|-----------|-3333---|-----------|-3333---|
|-0-|--2-3-2-0--|------0-|--2-3-2-0--|------0-|

riff 1: x4

|---------------------------------|----------------------------------|
|-3p0--7p0--3p0--5p0--3p0--2h3p-0-|-3p0--7p0--3p0--5p0--3p0----------|
|---------------------------------|--------------------------3333----|
|---------------------------------|-------------------------------0~-|

riff 2:
                             x4
|----|-----------|-------------------------------|
|----|-4-----7v--|---------------------4-----7v--|
|----|----0------|------------------------0------|
|-0--|-----------|-0-00-00---0-00-00-------------|

riff 3:
                         x15       end riff with:
|---------|---------|-----------|  |----------|
|---------|---------|-----------|  |----------|
|---------|---------|-----------|  |----------|
|-0-00-00-|-0-00-00-|--0-00-00--|  |-0--0--0--|

riff 4: x4

|---------------------------------|----------------------------------|
|---------------------------------|----------------------------------|
|-----8----12----8----10----7h8p--|-----8----12----8----10----3333---|
|-000---00----00---00----00-------|-000---00----00---00----00------0-|

riff 5: x2

|---------------------------------------|-------------------------------------|
|---------------------------------------|-------------------------------------|
|-------7-8--------8-7------------------|-------7-8-------8-7-----------------|
|-0-000------0-000-----10-101010-8-888--|-0-000-----0-000-----10-101010-3-333-|

riff 6: x2

|----|----|----|--------|
|----|----|----|--------|
|----|----|----|--------|
|-0~-|-0~-|-8~-|-10~-7~-|

riff 7: x4
                                                   end on
|-----------------------------------------------|  |----|
|-----------------------------------------------|  |----|
|-------------------------------------12-10-8-7-|  |----|
|-000----000-000----888----101010-777-----------|  |-0~-|

  Visit MetalTabs.com for more metal tablature

bottom separator

Contact Us | Privacy Policy | Disclaimer | Legal Notice
Copyright © 2001-2014 MetalTabs.com. All Rights Reserved.