top separator

Home

Forum

What's New

Submit a Tab

FAQ

Links

Contact Us

Link to Us

MuSpy.com

MetalTabs.com logo

Bands

0-9

A

B

C

D

E

F

G

H

I

J

K

L

M

N

O

P

Q

R

S

T

U

V

W

X

Y

Z

Search

What

Where
 

Aborted - "The Inertia" Guitar Tab

Plain Text Version
More Aborted Tabs

Hits: 4722
Rated: 5.00 out of 5 (3 votes)
Updated: 2006-12-04 23:31:16

 

By:

sendpm.gif

email.gif

Important note
This tab is available online because we obtained explicit permission from Aborted or their label.


#----------------------------------PLEASE NOTE---------------------------------#
#This file is the author's own work and represents their interpretation of the #
#song. You may only use this file for private study, scholarship, or research. #
#Unless specified otherwise, this is NOT an official tab from the band members.#
#------------------------------------------------------------------------------#

  Visit MetalTabs.com for more metal tablature
  
Band:  Aborted
Album: The Archaic Abattoir
Song:  The Inertia

Copyright (c)  Listenable Records 2006
Version 1.0 - 30/11/2006

Transcribed By: Eddy V.
Email:          sandro_dicairano@hotmail.com

.  - palm mute           /  - slide up to
\  - slide down to       ~  - vibrato
x  - Stuccatto           "  - tremolo note

Riff I (0:00)

|----------------------------------------------------------|
|----------------------------------------------------------|
|----------------------------------------------------------|
|----------5-4----------------------------5-4---5--5-5-4---|
|-3--6-3-6-----6------6----------3--6-3-6-----6------------|
|-----------------7------7--3------------------------------|

|-------------------------------------------------------------------|
|-------------------------------------------------------------------|
|-------------------------------------------------------------------|
|----------5-4------------------------------------------------------|
|-3--6-3-6-----6------6---------------6--6-6-6-6-6-6-6-/9-9-9-9-9-9-|
|-----------------7------7--3---------4--4-4-4-4-4-4-4-/7-7-7-7-7-7-|
                                         . . . . . . .    .

Riff II (0:10)

|---------------------------------------------------------|
|---------------------------------------------------------|
|---------------------------------------------------------|
|-------------------1-------------------------------------|
|-333-333-333-333-2---2-------333-333-333-333-6----9----9-|
|-----------------------3---------------------4--0-7--0-7-|
  ... ... ... ...             ... ... ... ...    .    .

|-------------------------------------------------------|
|-------------------------------------------------------|
|-------------------------------------------------------|
|-------------------1-----------------------------------|
|-333-333-333-333-2--2----6-----------------------------|
|----------------------3--4--4-4-4-4-4-4-4-/7-7-7-7-7-7-|
  ... ... ... ...            . . . . . . .    .


Riff III (0:19)

|----------------------------------------------------------|
|----------7-6----------------------------7-6---7--7-7-6---|
|-5--8-5-8-----8------8----------5--8-5-8-----8------------|
|-----------------9------9-5-------------------------------|
|----------------------------------------------------------|
|----------------------------------------------------------|

|-------------------------------------------------------------------|
|----------7-6------------------------------------------------------|
|-5--8-5-8-----8------8---------------------------------------------|
|-----------------9------9-5----------6--6-6-6-6-6-6-6-/9-9-9-9-9-9-|
|-------------------------------------------------------------------|
|-------------------------------------------------------------------|
                                         . . . . . . .    .

Riff IV (0:29)

|-----------------------------------------------------------|
|-----------------------------------------------------------|
|---------------------------------------------7------8------|
|-10------9------5------6------10------9--------------------|
|-----------------------------------------------------------|
|-----------------------------------------------------------|

|--------------------------------------------2/3-5----------|
|-8------7------3------4------8------7----8----------8------|
|-----------------------------------------------------------|
|-----------------------------------------------------------|
|-----------------------------------------------------------|
|-----------------------------------------------------------|


Riff V (0:48)

|----------------------------------------------------|
|----------------------------------------------------|
|----------------------------------------------------|
|-----------------------------------------------6~---|
|-------2-------------------3----5----6----5----4~---|
|-1111110---------------0-0-1--0-3--0-4--0-3--0------|
  ......x               . .    .    .    .    .

|-----------------------------------------------|
|-----------------------------------------------|
|-----------------------------------------------|
|-----------------------------------------------|
|-------2---------------3---5---6---5---5--5----|
|-1111110---------------1---3---4---3---3--3----|
  ......x

Riff VI (0:58)
|----------------------------------------------------------|
|----------------------------------------------------------|
|----------------------------------------------------------|
|----------------------------------------------------------|
|-3-3-3-2---2-2-2-2-2-2-2-2-2-2-3----5----6----5----5--5---|
|-1-1-1-0---0-0-0-0-0-0-0-0-0-0-1--0-3--0-4--0-3--0-3--3---|
  . . .     . . . . . . . . . .    .    .    .    .

Riff VII (1:03)

|------------------------------------------------------|
|------------------------------------------------------|
|------------------------------------------------------|
|---------------------------------------------------4--|
|-3-3-3-2---2-2-2-2-2-2-2-2-2-2-3----5----6----5----2--|
|-1-1-1-0---0-0-0-0-0-0-0-0-0-0-1--0-3--0-4--0-3--0----|
  . . .     . . . . . . . . . .    .    .    .    .

Riff II x 1 (1:07)
Riff I  x 1 (1:17)
Riff VI x 2 (1:26)

Riff VIII (1:36)

|------------------------------------------------------|
|------------------------------------------------------|
|------------------------------------------------------|
|------------------------------------------------------|
|-6-6-6-5-------------------6----8----9----8----8--8-8-|
|-4-4-4-3---3-3-3-3-3-3-3-3-4--3-6--3-7--3-6--3-6--6-6-|
  . . .     . . . . . . . .    .    .    .    .

|--------------------------------------------------|
|--------------------------------------------------|
|--------------------------------------------------|
|--------------------------------------------------|
|-6-6-6-5-------------------6----8----9----8----5--|
|-4-4-4-3---3-3-3-3-3-3-3-3-4--3-6--3-7--3-6--3-3--|
  . . .     . . . . . . . .    .    .    .    .

Riff IX (1:46)

|-----------------------------------------------------| -|
|-----------------------------------------------------|  |
|-------7"-6"-----------------------------------------|  |
|-5"-8"-------8"-5"-8"-5"-8"--------------------------|  |
|-------------------------6"--------------------------|  |
|-----------------------------------------------------|  |
                                                         |- x2
|-----------------------------------------------------|  |
|-----------------------------------------------------|  |
|-------7"-6"-------------7-6-7--6---6----------------|  |
|-5"-8"-------8"-5"-8"-5"----------8----8-7-8--7---7--|  |
|------------------------------------------------8----|  |
|-----------------------------------------------------| -|



Riff X (solo rhythm) (2:05)                                x2
|-----------------------------------------------------------|
|-----------------------------------------------------------|
|-----------------------------------------------------------|
|---------------------------------------------7------8------|
|-10------9------5------6------10------9------5------6------|
|-8-------7------3------4------8-------7--------------------|


Riff XI (2:25)

|------------------------------------------------------------------| -|
|------------------------------------------------------------------|  |
|------------------------------------------------------------------|  |
|------------------------------------------------------------------|  |
|-2-2---2-4/5---2-2-2---2-5\4-2-3--3-3-3-3-3-3-3-3/6-6-6-6-6-6-6-6-|  |
|-0-0---0-2/3---0-0-0---0-3\2-0-1--1-1-1-1-1-1-1-1/4-4-4-4-4-4-4-4-|  |
    x   .       .   x   .     .    . . .   . . .     . . .   .   .    |- x2
                                                                      |
|------------------------------------------------------------------|  |
|------------------------------------------------------------------|  |
|------------------------------------------------------------------|  |
|-------------------------------5--5-5-5-5-5-5-5-5-----------------|  |
|-2-2---2-4/5---2-2-2---2-5\4-2-3--3-3-3-3-3-3-3-3-6-6-6-6-6-6-6---|  |
|-0-0---0-2/3---0-0-0---0-3\2-0--------------------4-4-4-4-4-4-4---| -|
    x   .       .   x   .     .    . . .   . . .     . .   .   .

Riff XII (2:49)

|--------------------------------------------------------------------| -|
|--------------------------------------------------------------------|  |
|--------------------------------------------------------------------|  |
|---7-9-10---6-7-9---------------------------------------------------|  |
|-7--------7---------7-9-10-9-7-9--------10---10---10--6-666-6\3-----|  |
|------------------9----------------8~-8----8----8-----4-444-4\1-----|  |
  . . . .  . . . . . . . .  . . .      .    .    .                      |- x2
                                                                        |
|--------------------------------------------------------------------|  |
|--------------------------------------------------------------------|  |
|--------------------------------------------7-6---------------------|  |
|---7-9-10---6-7-9------------------5~--5-8-5-----8----8-------------|  |
|-7--------7---------7-9-10-9-7-9-------------------9----9-----------|  |
|------------------9---------------------------------------10--------| -|
  . . . .  . . . . . . . .  . . .       .   .

Riff II x1 (3:15)
Riff I  x1(3:24)

End (3:35)

|----|
|----|
|----|
|----|
|-10-|
|-8--|
  X

That's it. Feedback? questions? comments? --> sandro_dicairano@hotmail.com

  Visit MetalTabs.com for more metal tablature

bottom separator

Contact Us | Privacy Policy | Disclaimer | Legal Notice
Copyright © 2001-2014 MetalTabs.com. All Rights Reserved.