top separator

Home

Forum

What's New

Submit a Tab

FAQ

Links

Contact Us

Link to Us

MetalTabs.com logo

Bands

0-9

A

B

C

D

E

F

G

H

I

J

K

L

M

N

O

P

Q

R

S

T

U

V

W

X

Y

Z

Search

What

Where
 

Aria (RU) - "Calm" Guitar Tab

Plain Text Version
More Aria (RU) Tabs

Hits: 2189
Rated: 5.00 out of 5 (3 votes)
Updated: 2006-12-04 23:30:04

 

By:

sendpm.gif

email.gif

Important note
This tab is available online because we obtained explicit permission from Aria (RU) or their label.


#----------------------------------PLEASE NOTE---------------------------------#
#This file is the author's own work and represents their interpretation of the #
#song. You may only use this file for private study, scholarship, or research. #
#Unless specified otherwise, this is NOT an official tab from the band members.#
#------------------------------------------------------------------------------#

  Visit MetalTabs.com for more metal tablature
  
Band:  Aria(RU)
Album: Chimera
Song:  Calm (Shtil')

Copyright (c)  Classic company 2001
Version 1.0 - 29/11/2006

Transcribed By: Konstantin Morozov
Email:          snoiprocks@yahoo.com


.  - palm mute           /  - slide up to
\  - slide down to       ~  - vibrato
h  - hammer on           b  - Bend
p  - pull off            Suffixes for bend
t  - tap                 f  - full bend    h - half bend
ph - pinched harmonic    q  - quarter bend t - tap bend
*  - see comment         ^  - Hold bend    r release bend
x  - Stuccatto           ~  - vibrato bend
,  - slight palm mute    () - ghost note, sustained note
"  - tremolo note        <> - Trill

Tuning E A D G B E

Intro:

|--0-----0-----0-----000---0---------|
|--10----0-----0-----000---0---------|
|--9-----5-----2-----000---2---------|
|--10----7-----4-----222---4---------|
|--x-----0-----0-----222---0---------|
|--x-----x-----x-----000---x---------|

Verse:
  Em     D     Am   Em    G*    F#m*
|--0-----2(3)--0-----0-----0-----0---|
|--0-----3-----1-----0-----0-----0---|
|--0-----2-----2-----0-----4-----2---|
|--2-----0-----2-----2-----5-----4---|
|--2-----x-----0-----2-----0-----0---|
|--0-----x-----x-----0-----x-----x---|

Bridge:
   C     D     C     D(Bm)
|--0-----2(3)--0-----2(2)------------|
|--1-----3-----1-----3(3)------------|
|--0-----2-----0-----2(4)------------|
|--2-----0-----2-----0(4)------------|
|--3-----x-----3-----x(2)------------|
|--x-----x-----x-----x(2)------------|

Chorus:
  Em     C     H (*3 times)
|--0-----3-----2---------------------|
|--0-----5-----4---------------------|
|--0-----5-----4---------------------|
|--2-----5-----4---------------------|
|--2-----3-----2---------------------|
|--0-----3-----2---------------------|

End

  Visit MetalTabs.com for more metal tablature

bottom separator

Contact Us | Privacy Policy | Disclaimer | Legal Notice
Copyright © 2001-2014 MetalTabs.com. All Rights Reserved.