#----------------------------------PLEASE NOTE---------------------------------#
#This file is the author's own work and represents their interpretation of the #
#song. You may only use this file for private study, scholarship, or research. #
#Unless specified otherwise, this is NOT an official tab from the band members.#
#------------------------------------------------------------------------------#

  Visit MetalTabs.com for more metal tablature
  
Band:           I KILLED THE PROM QUEEN
Song:           SHARKS IN YOUR MOUTH
Album/EP:               MUSIC FOR THE RECENTLY DECEASED
Label:          STOMP RECORDS
Bassist:                SEAN KENNEDY
Tuning:         Drop C (CGCF)

INTRO Version 1(0.00)

G|------------------------------------------------|
D|------------------------------------------------|
A|--------------------3~----------------------3~--|
E|--0~----0~----3~----------0~----0~----3~--------|

INTRO Version 2(0.00)

G|------------------------------------------------|
D|------------------------------------------------|
A|------------------------------------------------|
E|--3-3--3-3-3-3--3-3--2-0-2/5-5-5-5--1-1-0-1-2---|

PRE VERSE

G|--------------------------------------------------|
D|--------------------------------------------------|
A|--------------------------------------------------|
E|-0-0--0-0---0-0-0--0-0-0--0-0--0-0---0-0-0--0-0-0-|

G|-----------------------------------------------------|
D|------------------------------------2-3-2-3-5-3-2-3--|
A|--------------------------3-3--3-3-------------------|
E|-3-3--3-3---3-3-3--3-3-3-----------------------------|

VERSE

G|--------------------------------------------------------------------|
D|--------------------------------------------------------------------|
A|--------------------------------------------------------------------|
E|-0-0-0-0-0-0-0-0--0-0-0-0-0-0-0-0--3-3-3-3-3-3-3-3-3-3-3-3-3-3-3-3-|

G|---------------------------------------------------|
D|---------------------------------------------------|
A|-3-3-3-3-3-3-3-3--3-3-3-3-3-3-3-3------------------|
E|-----------------------------------0-0-0-0-0-0-0-0-|

CHORUS

G|-----------------------------------------------------------|
D|-----------------------------------------------------------|
A|-----------------------------------------------------------|
E|-5-5-5-5-5-5-5-5--8-8-8-8-8-8-8-8--10-10-10-10-10-10-10-10-|

G|-------------------------------------|
D|-------------------------------------|
A|-------------------------------------|
E|--0~--5~--8~--10~--0~--5~--8~--10~---|

  Visit MetalTabs.com for more metal tablature