top separator

Home

Forum

What's New

Submit a Tab

FAQ

Links

Contact Us

Link to Us

MetalTabs.com logo

Bands

0-9

A

B

C

D

E

F

G

H

I

J

K

L

M

N

O

P

Q

R

S

T

U

V

W

X

Y

Z

Search

What

Where
 

Immortal - "Years of silent sorrow" Guitar Tab

Plain Text Version
More Immortal Tabs

Hits: 2072
Rated: 3.00 out of 5 (2 votes)
Updated: 2006-12-04 22:52:24

 

By:

sendpm.gif

email.gif

Important note
We did our best to reach Immortal and ask for their permission to publish this tab. Unfortunately they did not respond to our requests or we could not find a way to contact them. This tab is available online until Immortal tells us to take it down.


#----------------------------------PLEASE NOTE---------------------------------#
#This file is the author's own work and represents their interpretation of the #
#song. You may only use this file for private study, scholarship, or research. #
#Unless specified otherwise, this is NOT an official tab from the band members.#
#------------------------------------------------------------------------------#

  Visit MetalTabs.com for more metal tablature
  
Years Of Silent Sorrow
Immortal
At the Heart Of Winter

Tab: Death_Sapro (death_sapro.livejournal.com,
                    dancortez@rambler.ru)
// really strong black metal , thanks for using my tab


Abbath:

     Riff A                                                        PH
E||--------------------|-----------------------------|----------------------|
B||--------------------|-----------------------------|----------------------|
G||--------------------|-----------------------------|----------------------|
D||--9--------4--------|--5--------------------------|--9----------9--------|
A||--7--------2--------|--3--------3--3-3-3-5--5-5-5-|--7-------------------|
E||--------------------|-----------------------------|----------------------|


                                 Riff A
            PM PM PM PM PM PM
------------------------------|--------------------|
------------------------------|--------------------|
------------------------------|--------------------|
--10--------------------------|--9--------4--------|
---8--------3--3--3--5--5--5--|--7--------2--------|
------------3--3--3--5--5--5--|--------------------|


                                         TP    TP
-----------------------------|----------------------|
-----------------------------|----------------------|
-----------------------------|----------------------|
--5--------------------------|--9--------9----10----|
--3--------3--3-3-3-5--5-5-5-|--7-------------------|
-----------------------------|----------------------|


                                 Riff B
            PM PM PM PM PM PM
------------------------------|-------------------------------------------|
------------------------------|-------------------------------------------|
------------------------------|-------------------------------------------|
--10--------------------------|--9------------------------9--9--10--10----|
---8--------3--3--3--5--5--5--|--7------------------------7--7---8---8----|
------------3--3--3--5--5--5--|---------0-0-0-0-0-0-0-0-0-----------------|

			// this can be various
------------------------------------------------|
------------------------------------------------|
------------------------------------------------|
--10--------------------------------------------|
---8--------------------7-5---------7-5---------|
------0-0-0-0-0-0-0-0-0-----8-7-5-7-----8-7-5-7-|


---------------------------------------|
---------------------------------------|
---------------------------------------|
--9--------------------9--9--10--10----|
--7--------------------7--7---8---8----|
-----0-0-0-0-0-0-0-0-0-----------------|


                                                   Riff A
------------------------------------------------|--------------------|
------------------------------------------------|--------------------|
------------------------------------------------|--------------------|
--10--------------------------------------------|--9--------4--------|
---8--------------------7-7-7-7-7-7-5-5-5-5-5-5-|--7--------2--------|
------0-0-0-0-0-0-0-0-0-8-8-8-8-8-8-7-7-7-7-7-7-|--------------------|


-----------------------------|----------------------|
-----------------------------|----------------------|
-----------------------------|----------------------|
--5--------------------------|--9--------9----10----|
--3--------3--3-3-3-5--5-5-5-|--7-------------------|
-----------------------------|----------------------|


                                   Riff B
            PM PM PM PM PM PM
------------------------------||--------------------------------------------|
------------------------------||--------------------------------------------|
------------------------------||*-------------------------------------------|
--10--------------------------||*--9------------------------9--9--10--10----|
---8--------3--3--3--5--5--5--||---7------------------------7--7---8---8----|
------------3--3--3--5--5--5--||----------0-0-0-0-0-0-0-0-0-----------------|


------------------------------------------------|
------------------------------------------------|
------------------------------------------------|
--10--------------------------------------------|
---8--------------------7-5---------7-5---------|
------0-0-0-0-0-0-0-0-0-----8-7-5-7-----8-7-5-7-|


 --------------------------------------|
---------------------------------------|
---------------------------------------|
--9--------------------9--9--10--10----|
--7--------------------7--7---8---8----|
-----0-0-0-0-0-0-0-0-0-----------------|


                        PM PM PM PM PM PM
 ------------------------------------------||
-------------------------------------------||
------------------------------------------*||
--10--------------------------------------*||
---8---------------------------------------||
------0-0-0-0-0-0-0-0-0-8--8--8--7--7--7---||


   Riff C
-------------1--------1--------------1-----|--------------|
----------------3--------3--------------3--|--------------|
*------------------------------------------|--------------|
*--2---------------------------------------|--------------|
---2---------------------------------------|-----3-3----2-|
---0---------------------------------------|--------------|


  Riff C
------------1--------1--------------1-----|
---------------3--------3--------------3--|
------------------------------------------|
--2---------------------------------------|
--2---------------------------------------|
--0---------------------------------------|


---------------------------------------||
---------------------------------------||
--------------------------------------*||
--3-3-3-3-3-3-3-3-3-3-3-3-3-3-3-3-3-3-*||
--5-5-5-5-5-5-5-5-5-5-5-5-5-5-5-5-5-5--||
---------------------------------------||


   Riff C
-------------1--------1--------------1-----|--------------|
----------------3--------3--------------3--|--------------|
*------------------------------------------|--------------|
*--2---------------------------------------|--------------|
---2---------------------------------------|-----3-3----2-|
---0---------------------------------------|--------------|


  Riff C
------------1--------1--------------1-----|
---------------3--L-----3--L--L--------3--|
------------------------------------------|
--2---------------------------------------|
--2---------------------------------------|
--0---------------------------------------|


---------------------------------------||
---------------------------------------||
--------------------------------------*||
--3-3-3-3-3-3-3-3-3-3-3-3-3-3-3-3-3-3-*||
--5-5-5-5-5-5-5-5-5-5-5-5-5-5-5-5-5-5--||
---------------------------------------||


  Riff D
-----------------------------------------------------------------------------|
-----------------------------------------------------------------------------|
-----------------------------------------------------------------------------|
--3------3-3-3-3-3---2-2-2-2-2-2-2-2-2----3-3-3-3-3-3---2-2-2-2-2-2-2-2-2-3--|
--5------5-5-5-5-5---4-4-4-4-4-4-4-4-4----5-5-5-5-5-5---4-4-4-4-4-4-4-4-4----|
-------------------0-------------------0--------------0----------------------|


-------------------------------------------------------------------------|
-------------------------------------------------------------------------|
-------------------------------------------------------------------------|
--3-3-3-3-3-3---2-2-2-2-2-2-2-2-2----3-3-3-3-3-3---2-2-2-2-2-2-2-2-2-2-3-|
--5-5-5-5-5-5---4-4-4-4-4-4-4-4-4----5-5-5-5-5-5---4-4-4-4-4-4-4-4-4-----|
--------------0-------------------0--------------0-----------------------|


    Riff C
|-------------1--------1--------------1-----|--------------|
|----------------3--L-----3--L--L--------3--|--------------|
|*------------------------------------------|--------------|
|*--2---------------------------------------|--------------|
|---2---------------------------------------|-----3-3----2-|
|---0---------------------------------------|--------------|


  Riff C
------------1--------1--------------1-----|
---------------3--L-----3--L--L--------3--|
------------------------------------------|
--2---------------------------------------|
--2---------------------------------------|
--0---------------------------------------|


---------------------------------------||
---------------------------------------||
--------------------------------------*||
--3-3-3-3-3-3-3-3-3-3-3-3-3-3-3-3-3-3-*||
--5-5-5-5-5-5-5-5-5-5-5-5-5-5-5-5-5-5--||
---------------------------------------||


  Riff D
------------------------------------------------------------------------------|
------------------------------------------------------------------------------|
------------------------------------------------------------------------------|
-3------3-3-3-3-3---2-2-2-2-2-2-2-2-2----3-3-3-3-3-3---2-2-2-2-2-2-2-2-2------|
-5------5-5-5-5-5---4-4-4-4-4-4-4-4-4----5-5-5-5-5-5---4-4-4-4-4-4-4-4-4-<>3--|
------------------0-------------------0--------------0------------------------|


-------------------------------------------------------------------------|
-------------------------------------------------------------------------|
-------------------------------------------------------------------------|
--3-3-3-3-3-3---2-2-2-2-2-2-2-2-2----3-3-3-3-3-3---2-2-2-2-2-2-2-2-2-2-3-|
--5-5-5-5-5-5---4-4-4-4-4-4-4-4-4----5-5-5-5-5-5---4-4-4-4-4-4-4-4-4-----|
--------------0-------------------0--------------0-----------------------|


    Riff E
|------------------------------------------------------------------------------
|------------------------------------------------------------------------------
|------------------------------------------------------------------------------
|-------------5-5-5-5-5-5-5-5-5-5-5-5-5-5-5-5-5-5-----4-4-4-4-4-4-4-4-4-4-4-4-4
|-------------7-7-7-7-7-7-7-7-7-7-7-7-7-7-7-7-7-7-----5-5-5-5-5-5-5-5-5-5-5-5-5
|--0----------------------------------------------0----------------------------


------------------------------------------------------------------||
------------------------------------------------------------------||
-----------------------------------------------------------------*||
--------7-7-7-7-7-7-7-7-7-4-4-4-4-5-5-5-5-5-5-5-5-5-5-5-7--4-----*||
--------9-9-9-9-9-9-9-9-9-5-5-5-5-7-7-7-7-7-7-7-7-7-7-7-------5---||
--0---------------------------------------------------------------||


  Riff E(d)
-------------------------------------------------------------------------------
-------------------------------------------------------------------------------
-------------------------------------------------------------------------------
---------------5-5-5-5-5-5-5-5-5-5-5-5-5-5-5-5-5-5-----4-4-4-4-4-4-4-4-4-4-4-4-
---------------7-7-7-7-7-7-7-7-7-7-7-7-7-7-7-7-7-7-----5-5-5-5-5-5-5-5-5-5-5-5-
-0-------------------------------------------------0---------------------------


-----------------------------------------------------------------|
-----------------------------------------------------------------|
-----------------------------------------------------------------|
--------7-7-7-7-7-7-7-7-7-4-4-4-4-5-5-5-5-5-5-5-5-5-5-5-7--4-----|
--------9-9-9-9-9-9-9-9-9-5-5-5-5-7-7-7-7-7-7-7-7-7-7-7-------5--|
--0--------------------------------------------------------------|


    Riff F
|-----------------------------------------------------------------------------
|-----------------------------------------------------------------------------
|-----------------------------------------------------------------------------
|-5------5-5-5-5-5-5-5-5---5-5-5-5-5-5-5-5-5-5-5-5----5-5-5-5-5-5-5-5-5---5-5-
|-7------7-7-7-7-7-7-7-7---7-7-7-7-7-7-7-7-7-7-7-7----7-7-7-7-7-7-7-7-7---7-7-
|------------------------0-------------------------0--------------------0-----


------------------------------------------------------------------------------|
------------------------------------------------------------------------------|
------------------------------------------------------------------------------|
2-2-2-2-2-2-2-2-2---2-2-2-2-2-2-2-2-2-2-2-2----2-2-2-2-2-2-2-2-2---2-2-2-2-2-2|
3-3-3-3-3-3-3-3-3---3-3-3-3-3-3-3-3-3-3-3-3----3-3-3-3-3-3-3-3-3---3-3-3-3-3-3|
------------------0-------------------------0--------------------0------------|


   Riff G
							   PH
|-----------------------------------------------------------------------------|
|-----------------------------------------------------------------------------|
|-----------------------------------------------------------------------------|
|----7------7-7-7-7-7-8-7-5-7-------------------------------------------------|
|--------------------------------8-8-8-8-8-----7-7-7-7-7----8-----------------|
|-----------------------------------------------------------------------------|

|-----------------------------------------------------------------------------|
|-----------------------------------------------------------------------------|
|-----------------------------------------------------------------------------|
|---7-7-7-7-7-8-7-5-7---7-7-7-7-7-9-9-10-9------------------------------------|
|--------------------------------------------8-8-8-8-8-----7-7-7-7-7----3-----|
|-----------------------------------------------------------------------------|



   Riff H

-------------------|---------------------------|--------------|
-------------------|---------------------------|--------------|
-------------------|---------------------------|--------------|
--2----------------|--2------------2-----2-----|--0-----0-----|
--2----------------|--3--------------3-----3---|----2-----2---|
--0----------------|--3----------------3-----3-|------2-----2-|


---------------------|----------------------|--------------------------|
---------------------|----------------------|--------------------------|
---------------------|----------------------|--------------------------|
--5-----------2------|--5------4--5--4------|--2-----2-----0-----0-----|
--------------2------|----------------------|----3-----3-----2-----2---|
---------0----0------|----------------------|------3-----3-----2-----2-|


---------------------|-------------------------
---------------------|-------------------------
---------------------|-------------------------
--5-----------2------|--5----7--5--4--5--4--2--
--------------2------|-------------------------
---------0----0------|-------------------------

|--------------------------------------||
|--------------------------------------||
|--------------------------------------||
|--2------------2-----2-----0-----0----||
|--3--------------3-----3-----2-----2--||
|--3----------------3-----3-----2-----2||


Tablature Legend
----------------

NH - natural harmonic
AH - artificial harmonic
TH - tapped harmonic
SH - semi harmonic
PH - pitch harmonic
TP - tremolo picking

  Visit MetalTabs.com for more metal tablature

bottom separator

Contact Us | Privacy Policy | Disclaimer | Legal Notice
Copyright © 2001-2014 MetalTabs.com. All Rights Reserved.