top separator

Home

Forum

What's New

Submit a Tab

FAQ

Links

Contact Us

Link to Us

MuSpy.com

MetalTabs.com logo

Bands

0-9

A

B

C

D

E

F

G

H

I

J

K

L

M

N

O

P

Q

R

S

T

U

V

W

X

Y

Z

Search

What

Where
 

Toxik - "Black And White" Guitar Tab

Plain Text Version
More Toxik Tabs

Hits: 5145
Rated: 5.00 out of 5 (15 votes)
Updated: 2006-12-04 22:47:29

 

By:

Sycophant

sendpm.gif

email.gif

Important note
This tab is available online because we obtained explicit permission from Toxik or their label.


#----------------------------------PLEASE NOTE---------------------------------#
#This file is the author's own work and represents their interpretation of the #
#song. You may only use this file for private study, scholarship, or research. #
#Unless specified otherwise, this is NOT an official tab from the band members.#
#------------------------------------------------------------------------------#

  Visit MetalTabs.com for more metal tablature
  
Author/Artist: Toxik
Title: Black & White
Album: Think This [1992 Roadrunner]
Transcribed by: Greg D. [Sycophant]
Email: sentience666@hotmail.com

Tune To E.
. = palm mutes
t = tap the note with the right hand. A 'p' after a tapped note means pull-off
with the right hand from the tapped note.


0:01 - 0:15               end 1                    end 2
-------------------------|------------------------|---------------------------
-------------------------|-----------------ph-ph--|---------------------------
-------------------------|-----------------5--4v--|-5-3-2---------------------
-----------------3--2/-7-|---7--6-7-6-3-3---------|------5-3-2-5-5-3-2-0------
---5--4-5-4-1-1----------|-5----------------------|---------------------------
-3-----------------------|------------------------|-----------------------3-1-
      . . . . .            .    . . . . .

0:15 - 0:20
------------------------------------------------------------------------------
------------------------------------------------------------------------------
--------------------------------------5--------------5-\----6-----------------
-----------------3--2/-7-----7--6--7--3--\-/-\-/-\-/-3--\---4-----------------
---5--4-5-4-1-1-----------5-----------3--------------3---\--4-----------------
-3--------------------------------------------------------\-------------------
      . . . . .

0:20 - 0:32
------------------------------------------------------------------------------
---------------------------------------9-----------------------------------9--
----------------------------------8----6-----------------------------------6--
-----------------------5----------8----8--------------------------5--------8--
-4----------7-------------------------------4----------7----------------------
----3-3--333---3-3--333---3-3--333-------------3-3--333---3-3--333------------
    . .  ...   . .  ...   . .  ...             . .  ...   . .  ...

------------------------------------------------------------------------------
---------------------------------------------------------------------------9--
----------------------------------8----8-----------------------------------6--
-----------------------5----------8----8--------------------------------/--8--
-4----------7-------------------------------4----------7---------------/------
----3-3--333---3-3--333---3-3--333-------------3-3--333---3-3--3330\--/-------
    . .  ...   . .  ...   . .  ...             . .  ...   . .  ...  \/
                                                                     w/bar
0:32 - 0:44
------------------------------------------------------------------------------
-------------------------9-----------------------9----------------------------
----------------------8--6-----------------------6----------------------------
---------------5------8--8----------------5------8----------------------------
-4------7-------------------4------7------------------------------------------
--333333-333333-333333-------333333-333333------------------------------------
  ...... ...... ......       ...... ......

0:44 - 0:48 Guitar 1
------------------------------------------------------------------------------
------------------------------------------------------------------------------
----0--------2--------3--------5-----------------7----------------------------
-------2--------4--------5--------7--5-5-5-5-5-5-5----------------------------
-3--------5--------6--------8-------------------------------------------------
------------------------------------------------------------------------------
 let ring__________________________  . . . . . .

0:44 - 0:48 Guitar 2
------------------------------------------------------------------------------
----------------------------6--------8-8-8-8-8-8-8----------------------------
-5--------7--------8-----------------------------0----------------------------
------------------------------------------------------------------------------
------------------------------------------------------------------------------
------------------------------------------------------------------------------

0:48 - 1:00
------------------------------------------------------------------------------
------------------------------------------------------------------------------
------------------------------------------------------------------------------
------------------------------------------------------------------------------
-------------------------1------------------5-3-1-3-1-------------------------
-1h3-3-3-3-3-1h3-3-3-3-3------1h3-3-3-3--1------------1----1h3-3-3-3-3-1h3-3--
     . . . .     . . . .          . . .                        . . . .     .

                                     [x2] 1:00 - 1:11
-----------------------------------------|------------------------------------
-----------------------------------------|----0-----------2--4----------------
-----------------------------------------|-------0-----2--------4-----4--3\---
------------1-1-1-1----------------------|-2--------4--------------6--4--3\---
-------1------------3-3-3-3-0-0-0-0-1-1--|------------------------------------
-3-3-3-----------------------------------|------------------------------------
 . . .      . . . . . . . . . . . . . .    let ring_________________

------------------------------------------------------------------------------
------------------------------------------0-----------2--4--------------------
-5\6----------------2\1----------------------0-----2--------4-----4--3\-------
-7\4----------------3\2----------------2--------4--------------6--4--3\-------
---------------------------------------------------------------6---------2-2--
-----0-0--000--000------0-0--000--000------------------------------------0-0--
     . .  ...  ...      . .  ...  ...  let ring_________________         . .

           1:11 - 1:12 Guitar 1          1:11 - 1:12 Guitar 2
----------|-----------------------------|-------------------------------------
----------|------------------------ph---|-1-----------------------ph----------
----------|------------------------5v---|--------------0----------2v----------
----------|-------------5-------3h5-----|-------------------------------------
-222--222-|--------5h7h8---3h5h7--------|-------------------------------------
-000--000-|5--5h7h8---------------------|-------------------------------------
 ...  ...

1:13 - 1:22
------------------------------------------------------------------------------
------------------------------------------------------------4-5-7-5-4---------
-------------------------------------------------------2-4-5---------5-4-2----
---7---7---7---7---5---5---5---5---2---2---4---4--2-4-5-------------------5-4-
-33--33--55--55--22--22--33--33--00--00--22--22-------------------------------
------------------------------------------------------------------------------
 ..  ..  ..  ..  ..  ..  ..  ..  ..  ..  ..  ..

----------------------------------------------|
----------------------------------------------|
----------------------------------------------|
---7---7---7---7---5---5---5---5--2----0----1-|
-33--33--55--55--22--22--33--33---2----0----2-|
----------------------------------0-----------|
 ..  ..  ..  ..  ..  ..  ..  ..

1:22 - 1:33
------------------------------------------------------------------------------
----------------------------------------------------------------------ph------
----9--9-----9--9-----9--9--99999-----9--9-----9--9-----9--9------ph--9v------
----8--8-----8--8-----8--8--88888-----8--8-----8--8-----8--8--ph--8v----------
----7--7-----7--7-----7--7--77777-----7--7-----7--7-----7--7--7v--------------
-0--------0--------0---------------0--------0--------0------------------------

                                                     1:33 - 1:35 Guitar 1
----------------------------------------------------|-------------------------
----------------------------------------------------|----8h11p8---------------
----9--9-----9--9-----9--9--99999----9--9-----9--9--|-8h9------9p8h9----------
----8--8-----8--8-----8--8--88888----8--8-----8--8--|----------------8-8-8-8--
----7--7-----7--7-----7--7--77777----7--7-----7--7--|----------------7-7-7-7--
-0--------0--------0--------------0--------0--------|-------------------------

                                                                 Guitar 2
                                                    |--17p14------------------
                                                    |-------15----------------
                                                    |14-------14h15-15151515--
                                                    |---------------14141414--
                                                    |---------------13131313--
                                                    |-------------------------

1:45 - 1:47                                  2:36 - 2:37 Guitar 1 [pre-solo]
--------------------------------------------|---------------------------------
--------------------------------------------|---------------------------------
-ph-----------------------------------------|---------------------------------
-5v-------/---\-----------------------------|-4-4-5-5-2-2-4-4-0-0-2-2---------
--------------------------------------------|-------------------------4-4-5-5-
--------------------------------------------|---------------------------------
                                              . . . . . . . . . . . . . . . .

                                             2:36 - 2:37 Guitar 2 [pre-solo]
                                            |---------------------------------
					    |---------------------------------
					    |-6-6-7-7-4-4-6-6-----4-4---------
                                            |-----------------7-7-----6-6-7-7-
                                            |---------------------------------
                                            |---------------------------------
                                              . . . . . . . . . . . . . . . .

2:37 - 2:53 Guitar Solo [Josh Christian]

-------------------------11-11/-14-14-19-19-14-14-18-18-14-14-----------------
-------------------12-12--------------------------------------14-14-------14--
-------------11-11--------------------------------------------------15-15-----
-------13-13------------------------------------------------------------------
-14-14------------------------------------------------------------------------
------------------------------------------------------------------------------


----14-14-----------------------------9-9-/12-12-17-17-12-12-16-16-12-12------
-14-----------------------------10-10------------------------------------12---
----------------------------9-9-----------------------------------------------
----------------------11-11---------------------------------------------------
----------13----12-12---------------------------------------------------------
------------------------------------------------------------------------------


-------12h16p12---------------------------------------------------------------
----12---------12-------------------------------------------------------------
-13--------------13-----------------------------------------------------------
-------------------14---------------------------16----------------16-17-19----
---------------------14-------17-16-13/16-17-19----19-17-16-17-19-------------
------------------------15\14-------------------------------------------------


----------------------------------------------------------18--19--16--18------
----------------------------------17-19-20-19-17--------------------------19--
-------------------------16-18-19----------------19b21------------------------
-17-16----------16-17-18------------------------------------------------------
-------19-17-19---------------------------------------------------------------
------------------------------------------------------------------------------


-16------------------16-18-19-18-16---------------------16--17--14--16-----14-
----17-19-17-19-17-19---------------19-17-16----------------------------17----
---------------------------------------------18-16-15-------------------------
------------------------------------------------------------------------------
------------------------------------------------------------------------------
------------------------------------------------------------------------------


-16-17-16-14------------------------------------------------------------------
-------------17-15-14---------------------------------------------------------
----------------------16-14v-------------11----------------11-12-14-11-12-14--
--------------------------------10-12-14----14-12-10-12-14--------------------
------------------------------------------------------------------------------
------------------------------------------------------------------------------


-------------------------------------11-12-15---------------------------------
-12----------------11-12-15-11-12-15----------ph-\----------------------------
----14-12-11-12-14----------------------------xx--\---------------------------
---------------------------------------------------\--------------------------
----------------------------------------------------\-------------------------
-----------------------------------------------------\------------------------
                                        [ph between end of fretboard & bridge]


2:53 - 3:04 Guitar Solo

-12p8-----8h12/17p12---------12h17-16p12-------------16h19p16--------19p16----
-----10-10----------13-----13-----------12---------17--------17--17-----------
-------9--------------14-14---------------13-----16------------16-------------
--------------------------------------------14/18-----------------------------
------------------------------------------------------------------------------
------------------------------------------------------------------------------


-20p17-------21p17h20p17-------------------------15h20p15---------------------
------18----------------18----------18---------17--------17-------------------
--------17----------------17------17---------17------------17-----------------
----------------------------19--19---------17----------------17-----------17--
------------------------------20------15h19--------------------19p15-14h17----
------------------------------------------------------------------------------


-----15-----------------------------------------------------------------------
---15--15---------------------------------------------------------------------
-16------16-------------------------------------------------------------------
-----------17------------------12-----------------12-14-15-14-12----12-14-15--
-------------17p14----12-14-15----15-14-12-14--15----------------15-----------
------------------------------------------------------------------------------


------------------------------------------------------------------------------
------------------------------------------------------------------------------
------------------------------------------------------------------------------
-14-12----12-14-15-14v-------------------------12----------------12-14-15-12--
-------15-----------------15-14-12-12-12-14-15----15-14-12-14-15--------------
------------------------------------------------------------------------------


-------------------------12t17p17------12-15-13-12----12t17t12----------------
---------------------------------------------------15----------12t17t12-------
----------------12-14-16---------14-------------------------------------------
-14-15-12-14-15---------------------------------------------------------------
------------------------------------------------------------------------12v---
------------------------------------------------------------------------------


3:04 - 3:17 Guitar Solo

------------------------------19--21--17------------------------17h19t24p17-\-
--------------------------19--------------19--21---19\-/-/-/--17--------------
---------18--14v------------------------------/-------\-\-\-------------------
-----16-----------------------------------------------------------------------
-14---------------------------------------------------------------------------
------------------------------------------------------------------------------


-16h17p16-------------16h17h19p17p16-----------------------------------h12t14-
---------19p17p16v------------------19p17p16h17p16h17h19p16-t16p12p9h10-------
------------------------------------------------------------------------------
------------------------------------------------------------------------------
------------------------------------------------------------------------------
------------------------------------------------------------------------------


-p12p11-----------------------------------------------------------------------
-------t14p12p10----------------------------------------------------t19p17t24-
----------------t13p11-11h13h14t16p14p13p11\9/11-----------t18p14h16----------
------------------------------------------------11t18p14h16-------------------
------------------------------------------------------------------------------
------------------------------------------------------------------------------


----------------14h17t19p17p16p14/16h19p17h16t21/22p16t19p17p14---/\----------
-p19t17p14p12p10-------------------------------------------------/--\-/-/-/-/-
----------------------------------------------------------------/----\-\-\-\--
---------------------------------------------------------------/--------------
------------------------------------------------------------------------------
------------------------------------------------------------------------------
                                                                 bar madness

3:17 - 3:29 Guitar Duo
Guitar 1

-15-17-15-13-15-17-15-13-15-17-15-13-15-17-15-13-13-15-13-12-13-15-13-12-13---
------------------------------------------------------------------------------
------------------------------------------------------------------------------
------------------------------------------------------------------------------
------------------------------------------------------------------------------
------------------------------------------------------------------------------


-15-13-12-13-15-13-12--12-13-12-10-12-13-12-10-12-13-12-10-12-/---19-20-19----
------------------------------------------------------------------------------
------------------------------------------------------------------------------
------------------------------------------------------------------------------
------------------------------------------------------------------------------
------------------------------------------------------------------------------


-17-19-20-19-17-17-19-17-15-17-\----15-17-15-0-15-19-15-0-15-17-13-17-12-17---
------------------------------------------------------------------------------
------------------------------------------------------------------------------
------------------------------------------------------------------------------
------------------------------------------------------------------------------
------------------------------------------------------------------------------


----17-13-15-13-12-13-15-13-15----15----15----15-----------------------15-15--
-15----------------------------17----15----13-----17-18-17-15-17-17-18--------
------------------------------------------------------------------------------
------------------------------------------------------------------------------
------------------------------------------------------------------------------
------------------------------------------------------------------------------


-17-13-17-12-17-12h13p12-12----------12t17p12------------------------12h16t19-
---------------------------12------12--------12--------------------12---------
-----------------------------12--12------------12----------------13-----------
-------------------------------14----------------14------------16-------------
---------------------------------------------------14--------14---------------
-----------------------------------------------------15p12h16-----------------


3:17 - 3:29 Guitar Duo
Guitar 2

------------------------------------------------------------------------------
------------------------------------------------------------------------------
-17-19-17-16-17-19-17-16-17-19-17-16-17-19-17-16-16-17-16-14-16-17-16-14-16---
------------------------------------------------------------------------------
------------------------------------------------------------------------------
------------------------------------------------------------------------------


------------------------------------------------------------------------------
----------------------------------------------------------------17-18-17-15---
-17-16-14-16-17-16\--14-16-14-12-14-16-14-12-14-16-14-12-14v--\---------------
------------------------------------------------------------------------------
------------------------------------------------------------------------------
------------------------------------------------------------------------------


----------------------------------------------------------17-15-17-13-17-12---
-17-18-17-15-15-17-15-13-15-17-15-13-13-15-13-12-13-15-13---------------------
------------------------------------------------------------------------------
------------------------------------------------------------------------------
------------------------------------------------------------------------------
------------------------------------------------------------------------------


-17-------------------------15-13-15----15----15------------------------------
----15\---12-13-12-10-12-10----------17----15----13\--------------------------
------------------------------------------------------14-14-16-14-12-14-------
------------------------------------------------------------------------15-14-
------------------------------------------------------------------------------
------------------------------------------------------------------------------


-------------------------12----------12t17p12------------------------12h16t19-
----15-17-13-17-12-17------12------12--------12--------------------12---------
-16-------------------14\----12--12------------12----------------13-----------
-------------------------------14----------------14------------16-------------
---------------------------------------------------14--------14---------------
-----------------------------------------------------15p12h16-----------------


3:29 - 3:43 Guitar Duo
Guitar 1
------------------------------19--21--17---------------------------19p17p16---
--------------------------17--------------19--21----19h21p19p17---------------
---------18--14v--------------------------------------------------------------
-----16-----------------------------------------------------------------------
-14---------------------------------------------------------------------------
------------------------------------------------------------------------------


-\12h14p12--------------------------------------------------------------------
-----------16p14p12\10-------------------------------10-12-14-12-10-----------
-----------------------13-11-9---------------9-11-13----------------13-11-9v--
-------------------------------13-11-9-11-13----------------------------------
------------------------------------------------------------------------------
------------------------------------------------------------------------------


-------------------------19p16---------------------16-19----21--17------------
------------------------------17-----------------17---------/-----------------
---------18--14v----------------18-------------18--------------------xxxxxxx--
-----16---------------------------19p16------19----------------------xxxxxxx--
-14----------------------------------------18---------------------------------
------------------------------------------------------------------------------
                                                                   (inaudible)

-19---18-16-----------21---20-18---------21-19-17-----------------------------
------------19-16----------------21-18------------19-17\----------------------
------------------------------------------------------------------------------
------------------------------------------------------------------------------
------------------------------------------------------------------------------
------------------------------------------------------------------------------


3:29 - 3:43 Guitar Duo
Guitar 2
------------------------------------------------------------------------------
------------------------------------------------------------------------------
---------------------------14--------11------14------13------------13---------
---------14--11v-----------/---------/-------/-------/-----------14-----------
-14--12----------------------------------------------------------/------------
------------------------------------------------------------------------------


------------------------------------------------------------------------------
------------------------------------------------------------------------------
-16-14-13-------14-13---------------------------------------------------------
----------16-14-------16-14-13-14-16-14-13-------------------------------14---
-------------------------------------------16-14-12-------------14v--12-------
----------------------------------------------------16-14-12\11---------------


------------------------------------------------------------------------------
------------------------------------------------------------------------------
----------------12-9-13-9-14-14-11-11-------------13-11--------13--xxxxxxxxx--
-11v-----------------------------------------11h14----------14-----xxxxxxxxx--
-------------------------------------------12---------------------------------
--------------------------------------11h14-----------------------------------
                                                                  (inaudible)

------------------------------------------------------------------------------
--------------------------------14---14----14-16-14----------------13---------
-15------------13------13-14-15---------------------15----12-14-12----14\-----
---------15-------------------------------------------------------------------
------------13----------------------------------------------------------------
------------------------------------------------------------------------------


2:37 - 2:52 Rhythm Guitars
------------------------------------------------------------------------------
------------------------------------------------------------------------------
-------------------------4-------------------------------------------------2--
-4--444-4444444--4--2--222--22-------2v--5--------7------------4-----4---3----
-2--222-2211111--1--0--000--00-22222-----5--------7----------4-----4---5------
-------------------------------00000-----3--------5--------2-----0------------
    ..  ......         ..      ....                        let ring__________

------------------------------------------------------------------------------
-----------------5------------------------------------------------------------
-----1-----7---7---7-------7--------------------------------------------------
---2-----5---5-------5---5---5------------------------------------------------
-4-----3---------------3-------2----------------------------------------------
-------------------------------0----------------------------------------------
 _____________________________


2:52 - 3:04 Rhythm Guitars
"The Power Metal Section"
------------------------------------------------------------------------------
------------------------------------------------------------------------------
---------------------------------------------------------4--------------------
---------------------------------------------------------4---5---7------------
-------------------------------------------------333333332---5---7------------
-555555555555555500000000000000001111111111111111------------3---5-5555555555-
 ........................................................          ..........

-------------------------------------3----------------------------------------
-------------------------------------3----------------------------------------
-------------------------------------5----------------------------------------
------2--------------3---------------5----------------------------------------
------2--------------3--------------------------------------------------------
-555500000000000000001111111111111111-----------------------------------------
 ..... .............. ...............


3:04 - 3:17 Rhythm
"The Weird Section"

---7---8------7---2-----7---8------11-----\---7---8-----7---4-----7---3----6--
---7---8------7---2-----7---8------11-----\---7---8-----7---4-----7---3----6--
---9---10-----9---4-----9---10-----13-----\---9---10----9---6-----9---5----8--
---9---10-----9---4-----9---10-----13-----\---9---10----9---6-----9---5----8--
--------------7---2-----7---8------11-----\---7---8-----7---4-----7-----------
------------------------------------------------------------------------------
   liberal use of whammy during this entire section

   [then go back to the "power metal" section with slight improv on the riffs]


3:40 - 3:45 Rhythm
[at end of second weird guitar duo, before drum solo]
-6---------------------------------8---------------------------------3--------
-6---------------------------------8---------------------------------3--------
-5---------------------------------7---------------------------------5--------
-5---------------------------------7---------------------------------5--------
-3---------------------------------5------------------------------------------
------------------------------------------------------------------------------


5:03 - end

---8h11p8--|-----3-6-3---------3---------3-6-3---------3---------3-6-3--------
--9------9-|---4-------4---4-----4-----4-------4---4-----4-----4-------4---4--
-8---------|-2-----------2---2-----2-2-----------2---2-----2-2-----------2----
-----------|------------------------------------------------------------------
-----------|------------------------------------------------------------------
-----------|------------------------------------------------------------------
G1   x7     G2

                      5:03 - end Rhythm
---3---------3-6-3---|--------------------------------------------------------
-----4-----4-------4-|--------------------------------------------------------
-2-----2-2-----------|8888--------8888--------8888--------888888--------------
---------------------|7777--7777--7777--7777--7777--7777--777777--------------
---------------------|6666--6666--6666--6666--6666--6666--666666--------------
---------------------|--------------------------------------------------------

  Visit MetalTabs.com for more metal tablature

bottom separator

Contact Us | Privacy Policy | Disclaimer | Legal Notice
Copyright © 2001-2014 MetalTabs.com. All Rights Reserved.