top separator

Home

Forum

What's New

Submit a Tab

FAQ

Links

Contact Us

Link to Us

MuSpy.com

MetalTabs.com logo

Bands

0-9

A

B

C

D

E

F

G

H

I

J

K

L

M

N

O

P

Q

R

S

T

U

V

W

X

Y

Z

Search

What

Where
 

Covenant - "Dragonstoms" Guitar Tab

Plain Text Version
More Covenant Tabs

Hits: 1719
Updated: 2006-12-04 22:36:34

 

By:

Ekinox

sendpm.gif

email.gif

Important note
We did our best to reach Covenant and ask for their permission to publish this tab. Unfortunately they did not respond to our requests or we could not find a way to contact them. This tab is available online until Covenant tells us to take it down.


#----------------------------------PLEASE NOTE---------------------------------#
#This file is the author's own work and represents their interpretation of the #
#song. You may only use this file for private study, scholarship, or research. #
#Unless specified otherwise, this is NOT an official tab from the band members.#
#------------------------------------------------------------------------------#

  Visit MetalTabs.com for more metal tablature
  
Covenant - Dragonstorms
from the album In times before the light
Mordgrimm records
Tabbed by Ekinox magisterdixit@hotmail.com

E standard tuning

Riff 1 guitar 1
|------------------------------------------------------------------|
|------------------------------------------------------------------|
|------------------------------------------------------------------|
|-------------2222-------------------------------------------------|
|-333322223333----3333222233332222------------2222-----------------|
|---------------------------------333322223333----3333222233334444-|

Guitar 2
|------------------------------------------------------------------|
|------------------------------------------------------------------|
|-------------9999-------------------------------------------------|
|-101099991010----1010999910109999------------9999-----------------|
|---------------------------------101099991010----1010999910101111-|
|------------------------------------------------------------------|

riff 2 guitar 1
|----------------------------|
|----------------------------|
|----------------------------|
|-----------77778888---------|
|----------------------------|
|-555555555------------------|

Guitar 2
|----------------------------|
|----------------------------|
|----------------------------|
|----------------------------|
|-777777777-77778888---------|
|-555555555-55556666---------|


Fig (with keyboards)
|-----------------------------------------------|
|-----------------------------------------------|
|-----------------------------------------------|
|-----------------------------------------------|
|-7---------------5-----------------------------|
|-5---------5-7-8---8-7-8-7-5-7-5-4-5-----------|

Riff 3 guitar 1
|-------------------------------------------|
|-------------------------------------------|
|-------------------------------------------|
|-----------11111111------------------------|
|-333333333-33333333-11111111-00000000------|
|-555555555----------33333333-11111111------|

Guitar 2
|-------------------------------------------|
|-------------------------------------------|
|-------------------------------------------|
|-----77---------77------55-----------------|
|---77--77--3366--66---55--55-----33--------|
|-55-----------------33-------1155--11------|

Riff 4
|-------------------------------------------------|
|-------------------------------------------------|
|-------------------------------------------------|
|-------------------------------------------------|
|-5--8---5--8---5--8--4--3------------------------|
|-3--6---3--6---3--6--2--1------------------------|

Riff 5
|-------------------------------------------------|
|-------------------------------------------------|
|-------------------------------------------------|
|---------------------555555555-------------------|
|-555555555-333333333-333333333-55555--5--3--3----|
|-333333333-111111111-----------33333--3--1--1----|

Ending
|--------------|
|--------------|
|--------------|
|--------------|
|---5----------|
|---3----------|

  Visit MetalTabs.com for more metal tablature

bottom separator

Contact Us | Privacy Policy | Disclaimer | Legal Notice
Copyright © 2001-2014 MetalTabs.com. All Rights Reserved.