top separator

Home

Forum

What's New

Submit a Tab

FAQ

Links

Contact Us

Link to Us

MuSpy.com

MetalTabs.com logo

Bands

0-9

A

B

C

D

E

F

G

H

I

J

K

L

M

N

O

P

Q

R

S

T

U

V

W

X

Y

Z

Search

What

Where
 

Covenant - "Towards The Crown Of Nights" Guitar Tab

Plain Text Version
More Covenant Tabs

Hits: 1812
Rated: 5.00 out of 5 (1 vote)
Updated: 2006-12-04 22:36:10

 

By:

Ekinox

sendpm.gif

email.gif

Important note
We did our best to reach Covenant and ask for their permission to publish this tab. Unfortunately they did not respond to our requests or we could not find a way to contact them. This tab is available online until Covenant tells us to take it down.


#----------------------------------PLEASE NOTE---------------------------------#
#This file is the author's own work and represents their interpretation of the #
#song. You may only use this file for private study, scholarship, or research. #
#Unless specified otherwise, this is NOT an official tab from the band members.#
#------------------------------------------------------------------------------#

  Visit MetalTabs.com for more metal tablature
  
Covenant - Towards the crown of nights
from the album In times before the light
Mordgrimm records
Tabbed by Ekinox magisterdixit@hotmail.com

E standar tuning

Riff 1
|-------------------------------------------------|
|-------------------------------------------------|
|-------------------------------------------------|
|-------------------------------------------------|
|-----222233332222----3333222---------------------|
|-0000------------0000-------000022223332220000---|

Punchs
|-------------------------------------------------|
|-------------------------------------------------|
|-------------------------------------------------|
|-2-------------------------5---------------------|
|-2-------------------------5---------------------|
|-0-------------------------3---------------------|

Riff 2
|---------------------------------------------------|
|---------------------------------------------------|
|---------------------------------------------------|
|--9999-1212-8888-99999999--1212-1515-1111-12121212-|
|--7777-1010-6666-77777777--1010-1313-9999-10101010-|
|---------------------------------------------------|

Riff 3 guitar 1
|-------------------------------------------------|
|-------------------------------------------------|
|-------------------------------------------------|
|-------------------------------------------------|
|-------------7777--------------------------------|
|-777710109999-----7777101099990000---------------|

guitar 2
|-------------------------------------------------|
|-------------------------------------------------|
|-------------------------------------------------|
|-9999-------------9999---------------------------|
|-----999977771010-----999977771010---------------|
|-------------------------------------------------|

Riff 4
|------------------------------------------|
|------------------------------------------|
|------------------------------------------|
|------------------------------------------|
|-9999999999999999-1010101010101010--------|
|-7777777766666666-7777777766666666--------|

Riff 5
|------------------------------------------|
|------------------------------------------|
|------------------------------------------|
|-----------------------9-109--------------|
|-9--11-12--8--9--11-12-7-8-7-12-1112------|
|-7--9--10--6--7--9--10-------10-9-10------|

Riff 6
|----------------------------------------------------|
|----------------------------------------------------|
|----------------------------------------------------|
|-------------2222444444444-------------222244442222-|
|-222244445555--------------222244445555-------------|
|----------------------------------------------------|

Ending
|------|
|------|
|------|
|--9---|
|--9---|
|--7---|

  Visit MetalTabs.com for more metal tablature

bottom separator

Contact Us | Privacy Policy | Disclaimer | Legal Notice
Copyright © 2001-2014 MetalTabs.com. All Rights Reserved.