top separator

Home

Forum

What's New

Submit a Tab

FAQ

Links

Contact Us

Link to Us

MuSpy.com

MetalTabs.com logo

Bands

0-9

A

B

C

D

E

F

G

H

I

J

K

L

M

N

O

P

Q

R

S

T

U

V

W

X

Y

Z

Search

What

Where
 

Rompeprop - "Swarming Of The Cysts" Guitar Tab

Plain Text Version
More Rompeprop Tabs

Hits: 1786
Updated: 2006-11-29 03:06:52

 

By:

Cunty Shunt

sendpm.gif

email.gif

Important note
This tab is available online because we obtained explicit permission from Rompeprop or their label.


#----------------------------------PLEASE NOTE---------------------------------#
#This file is the author's own work and represents their interpretation of the #
#song. You may only use this file for private study, scholarship, or research. #
#Unless specified otherwise, this is NOT an official tab from the band members.#
#------------------------------------------------------------------------------#

  Visit MetalTabs.com for more metal tablature
  
Band:  Rompeprop
Album: Menstrual Stomphulk
Song:  Swarming Of The Cysts

Copyright (c)  Dismemberment 2002
Version 1.0 - 11-24-06

Transcribed By: Jim Haras
Email:          jimharas@yahoo.com


.  - palm mute           /  - slide up to
\  - slide down to       ~  - vibrato
h  - hammer on           b  - Bend
p  - pull off            Suffixes for bend
t  - tap                 f  - full bend    h - half bend
ph - pinched harmonic    q  - quarter bend t - tap bend
*  - see comment         ^  - Hold bend    r release bend
x  - Stuccatto           ~  - vibrato bend
,  - slight palm mute    () - ghost note, sustained note
"  - tremolo note        <> - Trill

Tuning B E A D F# B

Riff 1
|-----------------------|
|-----------------------|
|-----------------------| x4
|-----------------------|
|-----------------------|
|--3322552233226666-----|

Riff 2
|----------------------------------|
|----------------------------------|
|----------------------------------| x2
|----------------------------------|
|--55-544-477-744-455-544-48-8-----|
|--33-322-255-522-233-322-26-6-----|

Riff 1 (x2)

Riff 3
|-----------------------|
|-----------------------|
|-----------------------| x2
|-----------------------|
|--5-44-7-4-5-4---------|
|--3-22-5-2-3-2-6666----|
     ..

Riff 4
|----------------|------------------|
|----------------|------------------|
|----------------|------------------|
|----------------|------------------|
|--5--7-4-5-7-4--|--5--7-4-5-7-4-5--|
|--3--5-2-3-5-2--|--3--5-2-3-5-2-3--|
   .  . . . . .     .  . . . . . .

Riff 4b <Start to speed up here...>
|--------------------|
|--------------------|
|--------------------| x4
|--------------------|
|--5-44-7-4-5-7-4-5--|
|--3-22-5-2-3-5-2-3--|
   . .. . . . . . .

Riff 5a             [1]               [2]
|---------------------|-------------------|
|---------------------|-------------------|
|---------------------|-------------------| x6
|---------------------|-------------------|
|--5-44-7-4-5-4-------|--5-44-7-4-5-7-4---|
|--3-22-5-2-3-2-6666--|--3-22-5-2-3-5-2---|
                                  . . .
Riff 5b
|------------------------|-------------------------|
|------------------------|-------------------------|
|------------------------|-------------------------|
|------------------------|-------------------------|
|------------------------|-------------------------|
|--3"-2"-5"-2"-3"-2"-6"--|--3"-2"-5"-2"-3"-5"-2"---|

Riff 5c                            @=12
|------------------------|-------------------------|
|------------------------|-------------------------|
|------------------------|-------------------------|
|------------------------|-------------------------|
|------------------------|--------------4----------|
|--3"-2"-5"-2"-3"-2"-6"--|--3"-2"-5"-2"-2-@\\\\\\\-|

Riff 6a
|---------------------|-----------------------------|
|---------------------|-----------------------------|
|---------------------|-----------------------------|
|---------------------|-----------------------------|
|--2-222222222222222--|--3p2-3p2-3p2-3p2-3p2-3p2----|
|--0-000000000000000--|--1p0-1p0-1p0-1p0-1p0-1p0----|
     ...............
Riff 6b
|---------------------|----------------------------|
|---------------------|----------------------------|
|---------------------|----------------------------|
|---------------------|----------------------------|
|--2-222222222222222--|--3p2-3p2-3p2-3p2-3p2-222---|
|--0-000000000000000--|--1p0-1p0-1p0-1p0-1p0-000---|
     ...............                         ...

Riff 6c
|------------------|--------------------|
|------------------|--------------------|
|------------------|--------------------|
|------------------|-------------ph9----|
|--2-2-2-2-2-2-2-2-|--2-2-2-2-2-2-------|
|--0-0-0-0-0-0-0-0-|--0-0-0-0-0-0-------|
   . . . . . . . .    . . . . . .

Riff 6d
|------------------|
|------------------|
|------------------| x6
|------------------|
|--2-2-2-2-2-2-2-2-|
|--0-0-0-0-0-0-0-0-|
   . . . . . . . .

Riff 6e
|------------------|--------------------------|
|------------------|--------------------------|
|------------------|--------------------------|
|------------------|--------------------------|
|--2-2-2-2-2-2-2-2-|--3p2--22-22-22-22-22-22--|
|--0-0-0-0-0-0-0-0-|--1p0--00-00-00-00-00-00--|
   . . . . . . . .         .. .. .. .. .. ..

Riff 6d (x4)
Riff 5a (x1)
Riff 3 (x2)

Riff 4 (variation for ending)
|--------------------------------------------|
|--------------------------------------------|
|--------------------------------------------|
|--------------------------------------------|
|--5--7-4-5-7-4--|--5--7-4-5-7-4-(let ring)--|
|--3--5-2-3-5-2--|--3--5-2-3-5-2-(let ring)--|
   .  . . . . .     .  . . . .

END

  Visit MetalTabs.com for more metal tablature

bottom separator

Contact Us | Privacy Policy | Disclaimer | Legal Notice
Copyright © 2001-2014 MetalTabs.com. All Rights Reserved.