top separator

Home

Forum

What's New

Submit a Tab

FAQ

Links

Contact Us

Link to Us

MuSpy.com

MetalTabs.com logo

Bands

0-9

A

B

C

D

E

F

G

H

I

J

K

L

M

N

O

P

Q

R

S

T

U

V

W

X

Y

Z

Search

What

Where
 

Morbid Saint - "Lock Up Your Children" Guitar Tab

Plain Text Version
More Morbid Saint Tabs

Hits: 4066
Rated: 5.00 out of 5 (2 votes)
Updated: 2006-11-29 03:04:22

 

By:

5667

sendpm.gif

email.gif

Co-authored by:

Sycophant

sendpm.gif

email.gif

Important note
This tab is available online because we obtained explicit permission from Morbid Saint or their label.


#----------------------------------PLEASE NOTE---------------------------------#
#This file is the author's own work and represents their interpretation of the #
#song. You may only use this file for private study, scholarship, or research. #
#Unless specified otherwise, this is NOT an official tab from the band members.#
#------------------------------------------------------------------------------#

  Visit MetalTabs.com for more metal tablature
  
Band:  Morbid Saint
Album: Spectrum Of Death
Song:  Lock Up Your Children

Copyright (c)  Avanzada Metalica 1988
Version 1.0 - 11/23/06

Transcribed By: 5667
                Greg D. (Sycophant)
Email:          chuckiesworld@optonline.net
                sentience666@hotmail.com

.  - palm mute           /  - slide up to
\  - slide down to       ~  - vibrato
h  - hammer on           b  - Bend
p  - pull off            Suffixes for bend
t  - tap                 f  - full bend    h - half bend
ph - pinched harmonic    q  - quarter bend t - tap bend
*  - see comment         ^  - Hold bend    r release bend
x  - Stuccatto           ~  - vibrato bend
,  - slight palm mute    () - ghost note, sustained note
"  - tremolo note        <> - Trill

Tuning Eb Ab Db Gb Bb Eb

|-----|
|-----|
|-----|
|-----|
|-9-8-|
|-7-6-|

Intro
|-------------------------------------------------------------------|
|-------------------------------------------------------------------|
|-------------------------------------------------------------------|
|------9/10---10/11--11/12----12/13---------------------------------|x3
|------7/8-----8/9----9/10----10/11---------------------------------|
|-00------00------00-------00---------------------------------------|
  ..      ..      ..       ..
|-------------------------------------------------------------------|
|-------------------------------------------------------------------|
|-------------------------------------------------------------------|
|------9/10---10/11--11/12----5-------------------------------------|
|------7/8-----8/9----9/10----3-------------------------------------|
|-00------00------00-------00---------------------------------------|
  ..      ..      ..       ..
Gtr1
|-------------------------------------------------------------------|
|-------------------------------------------------------------------|
|-------------------------------------------------------------------|
|-------------------------------------------------------------------|x3
|----2-3----3-4----4-5----5-6---------------------------------------|
|-00-0-1-00-1-2-00-2-3-00-3-4---------------------------------------|
| ..     ..     ..     ..
| Gtr2
|-------------------------------------------------------------------|
|-------------------------------------------------------------------|
|-------------------------------------------------------------------|
|------9/10---10/11--11/12----12/13---------------------------------|x3
|------7/8-----8/9----9/10----10/11---------------------------------|
|-00------00------00-------00---------------------------------------|
  ..      ..      ..       ..
|-------------------------------------------------------------------|
|-------------------------------------------------------------------|
|-------------------------------------------------------------------|
|--------------------------5-4--------------------------------------|
|----2-3----3-4-----4-5----3-2--------------------------------------|
|-00-0-1-00-1-2--00-2-3-00------------------------------------------|
|
|-------------------------------------------------------------------|
|-------------------------------------------------------------------|
|-------------------------------------------------------------------|
|------9/10---10/11--11/12----5-4-----------------------------------|
|------7/8-----8/9----9/10----3-2-----------------------------------|
|-00------00------00-------00---------------------------------------|
  ..      ..      ..       ..

 Verse
|-------------------------------------------------------------------|
|-------------------------------------------------------------------|
|-------------------------------------------------------------------|
|------------8--------6-5------------8--------4-5-------------------|x4
|--------6-7----------4-3--------6-7----------2-3-------------------|
|-0-00-0-------0-00-0-----0-00-0-------0-00-0-----------------------|
  . .. .       . .. .     . .. .       . .. .

Chorus
|-------------------------------------------------------------------|
|-------------------------------------------------------------------|
|-------------------------------------------------------------------|
|-9-----10-----9------10------9-----10-----9-----10---9-------------|
|-7-----8------7------8-------7-----8------7-----8----7-------------|
|---000----000----000----000----000----000---000---000--00000000----|
    ...    ...    ...    ...    ...    ...   ...   ...  ........
1st ending
|----------|
|----------|
|----------|
|----------|
|----------|
|-00000000-|
  ........
2nd ending
|------|
|------|
|------|
|--5-4-|
|--3-2-|
|------|


Back to verse then chorus then back to intro

Breakdown
 Gtr1
|-------------------------------------------------------------------|
|-------------------------------------------------------------------|
|-------------------------------------------------------------------|
|------------7------------6--------------7--------------------------|
|------------5------------4--------------5-----7------6-------------|
|-000-0-000-0--000-0-000-0---000-0-000-0--0000-5-0000-4-------------|
  ... . ... .  ... . ... .   ... . ... .  ....   ....
|-------------------------------------------------------------------|
|-------------------------------------------------------------------|
|-------------------------------------------------------------------|
|------------7------------6--------------7--------------------------|
|------------5------------4--------------5-----7------6-------------|
|-000-0-000-0--000-0-000-0---000-0-000-0--0000-5-0000-4-------------|
| ... . ... .  ... . ... .   ... . ... .  ....   ....
|Gtr2
|-------------------------------------------------------------------|
|-------------------------------------------------------------------|
|-------------------------------------------------------------------|
|-------------------------------------------------------------------|
|----------------------------------------------7------6-------------|
|-----------------------------------------0000-5-0000-4-------------|
                                          ....   ....
|-------------------------------------------------------------------|
|-------------------------------------------------------------------|
|-------------------------------------------------------------------|
|------------7------------6--------------7--------------------------|x4
|------------5------------4--------------5-----7------6-------------|
|-000-0-000-0--000-0-000-0---000-0-000-0--0000-5-0000-4-------------|
  ... . ... .  ... . ... .   ... . ... .  ....   ....
|---------------|
|---------------|
|---------------|
|------6------5-|
|------4------3-|
|-0000---0000---|
  ....   ....

Solo Rythem
|-------------------------------------------------------------------|
|-------------------------------------------------------------------|
|-------------------------------------------------------------------|
|------9/10---10/11--11/12----12/13---------------------------------|x3
|------7/8-----8/9----9/10----10/11---------------------------------|
|-00------00------00-------00---------------------------------------|
  ..      ..      ..       ..
|-----------------------------|
|-----------------------------|
|-----------------------------|
|------9/10---10/11----5-4----|
|------7/8-----8/9-----3-2----|
|-00------00------0000--------|
  ..      ..      ....
|-------------------------------------------------------------------|
|-------------------------------------------------------------------|
|-------------------------------------------------------------------|
|----5/6----6/7----7/8---8/9----------------------------------------|x4
|----3/4----4/5----5/6---6/7----------------------------------------|
|-00-----00-----00-----00-------------------------------------------|
  ..     ..     ..     ..
|-------------------------------------------------------------------|
|-------------------------------------------------------------------|
|-------------------------------------------------------------------|
|------9/10---10/11--11/12----12/13---------------------------------|x3
|------7/8-----8/9----9/10----10/11---------------------------------|
|-00------00------00-------00---------------------------------------|
  ..      ..      ..       ..
|-------------------------------------------------------------------|
|-------------------------------------------------------------------|
|-------------------------------------------------------------------|
|------9/10---10/11--11/12----5-4-----------------------------------|
|------7/8-----8/9----9/10----3-2-----------------------------------|
|-00------00------00-------00---------------------------------------|
  ..      ..      ..       ..

then go to verse but repeat 3 times instead of 4


Solo
|-----------------------14-12-11----------14-12-11------------------|
|-----10b-10b-10~----------------14-12-11----------14-12-11-10b-10~-|
|-9-10------------10-11---------------------------------------------|
|-------------------------------------------------------------------|
|-------------------------------------------------------------------|
|-------------------------------------------------------------------|
  t        t        t        t        t        t       t
|-17-12h14-17-12h14-17-12h14-17-12h14-18-12h14-17-12\0-17-/12-------|
|-------------------------------------------------------------------|
|-------------------------------------------------------------------|
|-------------------------------------------------------------------|
|-------------------------------------------------------------------|
|-------------------------------------------------------------------|
  t        t        t        t        t        t        t
|-17-12h14-17-12h14-17-12h14-17-12h14-18-12h14-17-12h14-17-12h14----|
|-------------------------------------------------------------------|
|-------------------------------------------------------------------|
|-------------------------------------------------------------------|
|-------------------------------------------------------------------|
|-------------------------------------------------------------------|
  t        t                 t     t     t    t      t   t
|-17-12h14-17-12h14-13---13--16-14-16-14------16-14-16-14-----------|
|-------------------16b--16b-------------16-15-----------16-15------|
|-------------------------------------------------------------------|
|-------------------------------------------------------------------|
|-------------------------------------------------------------------|
|-------------------------------------------------------------------|
  t     t     t    t     t     t            t     t    t     t     t
|-16-14-16-14------16-14-16-14-------------16-14-16-14------16-14-16|
|-------------16-15------------16-15-16b~\-------------16-15--------|
|-------------------------------------------------------------------|
|-------------------------------------------------------------------|
|-------------------------------------------------------------------|
|-------------------------------------------------------------------|
     t    t     t     t    t     t     t
|-14------16-14-16-14------16-14-16-14------------------------------|
|---16-15------------16-15-------------16-15-16b~\------------------|
|-------------------------------------------------------------------|
|-------------------------------------------------------------------|
|-------------------------------------------------------------------|
|-------------------------------------------------------------------|

|-------------------------------------------------------------------|
|------------16p13-16-14-13----------16-14-13-----------------------|
|-14p11-16p13---------------16-15-13----------16-15-13--------------|
|-------------------------------------------------------------------|
|-------------------------------------------------------------------|
|-------------------------------------------------------------------|
  with trem bar back and forth          bar back and forth
|-------------------------------------------------------------------|
|-20-20-20-21-21-21-------------------------------------------------|
|----------------------------------------5nh------------------------|
|--------------------------------0-dive-----------------------------|
|-------------------------------------------------------------------|
|-------------------------------------------------------------------|

|-------------------------------------------------------------------|
|-------------------------------------------------------------------|
|-----------------ad lib Tremelo Bar effects------------------------|
|-------------------------------------------------------------------|
|-------------------------------------------------------------------|
|-------------------------------------------------------------------|

go to verse repeat twice then go to chorus then play verse and chorus again.

Outro
|-------------------------------------------------------------------|
|-------------------------------------------------------------------|
|-------------------------------------------------------------------|
|--6-5---6-5--9-8---------------------------------------------------|
|--4-3---4-3--7-6--8\-----------------------------------------------|
|------0----0------6\-----------------------------------------------|
       .    .
END

  Visit MetalTabs.com for more metal tablature

bottom separator

Contact Us | Privacy Policy | Disclaimer | Legal Notice
Copyright © 2001-2014 MetalTabs.com. All Rights Reserved.