top separator

Home

Forum

What's New

Submit a Tab

FAQ

Links

Contact Us

Link to Us

MetalTabs.com logo

Bands

0-9

A

B

C

D

E

F

G

H

I

J

K

L

M

N

O

P

Q

R

S

T

U

V

W

X

Y

Z

Search

What

Where
 

Malevolent Creation - "Mindlock" Guitar Tab

Plain Text Version
More Malevolent Creation Tabs

Hits: 2944
Rated: 5.00 out of 5 (2 votes)
Updated: 2006-11-29 03:02:40

 

By:

Sycophant

sendpm.gif

email.gif

Important note
This tab is available online because we obtained explicit permission from Malevolent Creation or their label.


#----------------------------------PLEASE NOTE---------------------------------#
#This file is the author's own work and represents their interpretation of the #
#song. You may only use this file for private study, scholarship, or research. #
#Unless specified otherwise, this is NOT an official tab from the band members.#
#------------------------------------------------------------------------------#

  Visit MetalTabs.com for more metal tablature
  
Author/Artist: Malevolent Creation
Title: Mindlock
Album: Retribution [1992 Roadrunner Records]
Transcribed by: Greg D. [Sycophant]
Email: sentience666@hotmail.com

Tune To D.
. = palm mutes.
Tremelo pick where applicable.


0:01 - 0:10 Guitar 1
------------------------------------------------------------------------------
------------------------------------------------------------------------------
------------------------------------------------------------------------------
------------------------------------------------------------------3-----------
---------------4-----333--444--333----------------4-----333--444--3-----------
-0-1-1-0-1-0-0-2-0-0-111--222--111--0-1-1-0-1-0-0-2-0-0-111--222-----0-1-1-0--
 . . . . . . .   . . ...  ...  ...  . . . . . . .   . . ...  ...     . . . .

------------------------------------------------------------------------------
------------------------------------------------------------------------------
------------------------------------------------------------------------------
--------------------------------------------------2-----2---------------------
-------4-----333--444--333----4-5---6-5---5-4---3-0---3-0-6-------------------
-1-0-0-2-0-0-111--222--111--2-----2-----2-----1-----1-----4-------------------
 . . .   . . ...  ...  ...  .     .     .     .     .

0:01 - 0:10 Guitar 2
------------------------------------------------------------------------------
------------------------------------------------------------------------------
------------------------------------------------------------------------------
---------------------------------------------------------------3-4---5-4---4--
-2-------------222-2--------------------3---2----------------0-----3-----1----
-0-------------000-0--------4h5-4-4-4-4---5-0---------------------------------
               ...              . . . .                      .     .     .
                    0:10 - 0:28
-------------------|----------------------------------------------------------
-------------------|----------------------------------------------------------
--------------1----|----------------------------------------------------------
-3--2-3---3-2-1----|----------------------------------------------------------
--0-----0----------|---------------44-----333--444--333---------------44------
-------------------|-0-1-1-0-1-0-0-22-0-0-111--222--111-0-1-1-0-1-0-0-22-0-0--
  .     .            . . . . . . . .. . . ...  ...  ... . . . . . . . .. . .

                             0:25 - 0:28 [end 4]
----------|-----|-----|-----|-------------------------------------------------
----------|-----|-----|-----|-------------------------------------------------
----------|-----|-----|-----|-------------------------------------------------
----------|-----|3----|-----|-------------------------------------------------
-333--444-|3----|1----|3----|---------------44-------------3------------------
-111--222-|1----|-----|1----|-0-1-1-0-1-0-0-22-0-0-0-1-2-3-3------------------
 ...  ...   end1  end2  end3  . . . . . . . .. . . . . . . .


0:28 - 0:37 Guitar 1
---------------------------------------------------------|--------|-----------
---------------------------------------------------------|--------|-----------
---------------------------------------------------------|--------|-----------
---------------------------------------------------------|^-------|-----------
-444-222-333-777-666-333-444-666-444-222-333-777-666-333-|2-------|-3---------
-222-000-111-555-444-111-222-444-222-000-111-555-444-111-|--------|-1---------
 ... ... ... ... ... ... ... ... ... ... ... ... ... ...  ph end1     end2

Guitar 2
---------------------------------------------------------|--------|-----------
---------------------------------------------------------|--------|-----------
---------------------------------------------------------|--------|-----------
---------------------------------------------------------|--------|-----------
---------------------------------------------------------|^-------|-333333----
---------------------------------------------------------|2-------|-111111----
 same as Guitar 1 except...                               ph end1   ...... e2


0:37 - 0:48
------------------------------------------------------------------------------
------------------------------------------------------------------------------
------------------------------------------------------------------------------
-3--------------------------------------------------------3-------------------
-1--------------5-5-5-4-4-4-------3-3-3-------2-2-2-------1--------------5-5--
----1-1-1-3-3-3-------------5-5-5-------4-4-4-------3-3-3----1-1-1-3-3-3------
    . . . . . . . . . . . . . . . . . . . . . . . . . . .    . . . . . . . .

                                0:48 - 0:56
-------------------------------|----------------------------------------------
-------------------------------|----------------------------------------------
-------------------------------|-2--------------------------------------------
---------------6\5-----4\3-----|-0--------------------1-1-1-0-0-0-3-3-3-4-4-4-
-5-4-4-4-------4\3-6-5-2\1-4-3-|----0-0-0-1-1-1-0-0-0-------------------------
---------6-6-6-----4-3-----2-1-|----------------------------------------------
 . . . . . . .     . .     . .      . . . . . . . . . . . . . . . . . . . . .

------------------------------------------------------------------------------
------------------------------------------------------------------------------
------------------------------------------------------------------------------
----------------------8\7------6\5-----5--------------------1-1-1-0-0-0-3-3-3-
-5--------------------6\5--8-7-4\3-8-7-5--0-0-0-1-1-1-0-0-0-------------------
-3--5-5-5-6-6-6-5-5-5------6-5-----6-5-3--------------------------------------
    . . . . . . . . .      . .     . .    . . . . . . . . . . . . . . . . . .

--------------------------------------------|
--------------------------------------------|
--------------------------------------------| then go back to 0:37 - 0:48 riff
-4-4-4-5--------------------8\7-----6\5-----|
-------5--------------------6\5-8-7-4\3-8-7-|
-------3--5-5-5-6-6-6-5-5-5-----6-5-----6-5-|
 . . .    . . . . . . . . .     . .     . .


- 0:28 to 0:37 riff played pre-solo

1:16 - 1:26 [solo rhythm]
-----------------------------------------------------------------|
-----------------------------------------------------------------|
-----------------------------------------------------------------|
-----------------------------------------------------------------|
-----------------------------------------------------------------|
-2222000011115555444411112222444422220000111155554444444411111111|


1:26 - 1:43
------------------------------------------------------------------------------
------------------------------------------------------------------------------
------------------------------------------------------------------------------
------------------------------------------------------------------------------
-7--6--4-----------000444-7--6--4-----------000333-7--6--4-----------000444---
-5--4--2--111222444-------5--4--2--111222444-------5--4--2--111222444---------
          ...............          ...............          ...............

 end 1                     1:40 - 1:43  [end 2]
-------------------------|----------------------------------------------------
-------------------------|----------------------------------------------------
-------------------------|----------------------------------------------------
-------------------------|----------------------------------------------------
-7--6--4--6--7--6--4--6--|-7--6--4--6--7--6--4--3-----------------------------
-5--4--2--4--5--4--2--4--|-5--4--2--4--5--4--2--1--2v-------------------------
       .  .  .  .  .  .          .  .  .  .  .  .


- @ 1:43 to 1:52 play 0:10 - 0:28 riff using only endings 1 and 2
- @ 1:52 play through 0:01 - 0:10 riff

2:00 - 2:06
-----------------------------------------------------------------|
-----------------------------------------------------------------|
-----------------------------------------------------------------|
-----------------------------------------------------------------|
-2-2-2-2-2-3-2-3-2-2-2-2-2-3-2-333-2-2-2-2-3-2-333-2-2-2-2-2-2-2-|
-0-0-0-0-0-1-0-1-0-0-0-0-0-1-0-111-0-0-0-0-1-0-111-0-0-0-0-0-0-0-|
   . . . .   .   . . . . .   .     . . . .   .     . . . . . . .

2:06 - 2:36 Guitar 1
--------------------------------------------------|-----------------|
--------------------------------------------------|-----------------|
--------------------------------------------------|-----------------|
--------------------------------------------------|---3-2-----------|
-3-2-2-2-2-3-2-3-2-2-2-2-2-3-2-333-2-2-2-2-3-2-333|-------4-3-2-----|
-1-0-0-0-0-1-0-1-0-0-0-0-0-1-0-111-0-0-0-0-1-0-111|-1-----------5-3-|
   . . . .   .   . . . . .   .     . . . .   .           . . . . .

                                                        end 1
2:06 - 2:36 Guitar 2
--------------------------------------------------|-----------------|
--------------------------------------------------|-----------------|
--------------------------------------------------|---2-1-----------|
--------------------------------------------------|-------3-2-0-----|
--------------------------------------------------|-1-----------4-3-|
--------------------------------------------------|-----------------|
 same as Guitar 1 except...                               . . . . .

     end 2
[both guitars]
-----------------|
-----------------|
-----------------|
-----------------|
-222-222-222 222-|
-000-000-000-000-|
 ... ... ... ...

2:36 - end
------------------------------------------------------------------------------
------------------------------------------------------------------------------
------------------------------------------------------------------------------
------------------------------------------------------------------------------
-7--6--4-----------000444-7--6--4-----------000333-7--6--4-----------000444---
-5--4--2--111222444-------5--4--2--111222444-------5--4--2--111222444---------
          ...............          ...............          ...............

 end 1                     end 2
-------------------------|------------------------------------------|
-------------------------|------------------------------------------|
-------------------------|------------------------------------------|
-------------------------|-------------------------3----------------|
-7--6--------------------|-7--6--4--6--7--6--4--3--1----------------|
-5--4--222444555444222444|-5--4--2--4--5--4--2--1-----1111333333333-|
                                 .  .  .  .  .  .

segue into "Iced"

  Visit MetalTabs.com for more metal tablature

bottom separator

Contact Us | Privacy Policy | Disclaimer | Legal Notice
Copyright © 2001-2014 MetalTabs.com. All Rights Reserved.