top separator

Home

Forum

What's New

Submit a Tab

FAQ

Links

Contact Us

Link to Us

MuSpy.com

MetalTabs.com logo

Bands

0-9

A

B

C

D

E

F

G

H

I

J

K

L

M

N

O

P

Q

R

S

T

U

V

W

X

Y

Z

Search

What

Where
 

Dismember - "Phantoms (Of The Oath)" Guitar Tab

Plain Text Version
More Dismember Tabs

Hits: 2051
Rated: 5.00 out of 5 (1 vote)
Updated: 2006-11-27 05:54:39

 

By:

Cannibal Carcass

sendpm.gif

email.gif

Important note
This tab is available online because we obtained explicit permission from Dismember or their label.


#----------------------------------PLEASE NOTE---------------------------------#
#This file is the author's own work and represents their interpretation of the #
#song. You may only use this file for private study, scholarship, or research. #
#Unless specified otherwise, this is NOT an official tab from the band members.#
#------------------------------------------------------------------------------#

  Visit MetalTabs.com for more metal tablature
  
Band:  DISMEMBER
Album: THE GOD THAT NEVER WAS
Song:  PHANTOMS (OF THE OATH)

Copyright (c)  REGAIN RECORDS 2006
Version 1.0 - 11/20/06

Transcribed By: CANNIBAL CARCASS
Email:          CANNIBAL764@yahoo.com


.  - palm mute           /  - slide up to





PHANTOMS (OF THE OATH)


Gtr I (C F Bb Eb G C) - 'Track 1'
Gtr II (C F Bb Eb G C) - 'Track 2'
Gtr III (C F Bb Eb G C) - 'Lead'
Gtr IV (C F Bb Eb G C) - 'Lead 2'





 Intro
  Q=155
 6/8
  Gtr I
|-------------------------|-------------------------|
|-------------------------|-------------------------|
|-------------------------|-------------------------|
|-------------------------|-------------------------|
|-------------------------|-------------------------|
|-------------------------|-------------------------|
|
| Gtr II
|-------------------------|-------------------------|
|-------------------------|-------------------------|
|-------------------------|-------------------------|
|-0-2-2-2-2-2-3-2-2-2-2-2-|-0-2-2-2-2-2-5-3-2-0-2-3-|
|-------------------------|-------------------------|
|-------------------------|-------------------------|


|---------------------------|
|---------------------------|
|---------------------------|
|-0-2-2-2-2-2-3-2-2-2-2-2---|
|---------------------------|
|---------------------------|

|---------------------------|
|---------------------------|
|---------------------------|
|-0-2-2-2-2-2-3-2-2-2-2-2---|
|---------------------------|
|---------------------------|

Gtrs I, II
|-------------------|
|-------------------|
|-------------------|
|-0-2-2-2-2-2-----3-|
|-------------0-1---|
|-------------------|


----------------------------------------------

Riff 1

Gtrs I, II
|--------------------------|-------------------------|
|o-------------------------|-------------------------|
|--------------------------|-------------------------|
|--0-2-2-2-2-2-3-2-2-2-2-2-|-0-2-2-2-2-2-5-3-2-0-2-3-|
|o-------------------------|-------------------------|
|--------------------------|-------------------------|


|-------------------------|--------------------|
|-------------------------|-------------------o|
|-------------------------|--------------------|
|-0-2-2-2-2-2-3-2-2-2-2-2-|-0-2-2-2-2-2-----3--|
|-------------------------|-------------0-1---o|
|-------------------------|--------------------| X 2

----------------------------------------------

Riff 1b
|--------------------------|
|--------------------------|
|--------------------------|
|--------------------------|
|--------------------------|
|-7-7-7-7-7-7-8-8-8-8-10-8-|


|--------------------|-----------------------------|
|--------------------|-----------------------------|
|--------------------|-----------------------------|
|--------------------|-----------------------------|
|--------------------|-----------------------------|
|-7-7-7-7-7-7-8-5-7--|-7-7-7-7-7-7-8-8-8-8-10-8----|

  Gtr I
|-------------------|
|-------------------|
|-------------------|
|-------------9-7---|
|-----------------9-|
|-7-7-7-7-7-7-------|
|
| Gtr II
|-------------------|
|-------------------|
|-------------------|
|-------------5-4---|
|-----------------5-|
|-7-7-7-7-7-7-------|

----------------------------------------------

RIFF 1 X 2

----------------------------------------------

   PLAY UNDER SOLO
   4/4
    Gtrs I, II
||-----------|-----------|------------|----------------||
||o----------|-----------|------------|---------------o||
||-----------|-----------|------------|----------------||
||-----------|-5----0----|-5-------7--|-4----(4)-------||
||o-2--------|-3----2----|-7----------|-5----(5)------o||
||--0--------|-----------|------------|-7----(7)--3-2--|| X 4

----------------------------------------------

INTRO  X 1
RIFF 1 X 1

----------------------------------------------

Riff 1c
 Gtrs I, II
|-------------------------|
|-------------------------|
|-2-4-4-4-4-4-5-4-4-4-4-4-|
|-------------------------|
|-------------------------|
|-------------------------|

|-------------------|-------------------------|-------------------|
|-------------------|-------------------------|-------------------|
|-2-4-4-4-4-4-------|-2-4-4-4-4-4-5-4-4-4-4-4-|-2-4-4-4-4-4-------|
|-------------3-0-2-|-------------------------|-------------3-2-0-|
|-------------------|-------------------------|-------------------|
|-------------------|-------------------------|-------------------|
                                                                         1/4
|-------------------------|-------------------|-------------------------|------|
|-------------------------|-------------------|-------------------------|------|
|-2-4-4-4-4-4-5-4-4-4-4-4-|-2-4-4-4-4-4-------|-2-4-4-4-4-4-5-4-4-4-4-4-|-15\--|
|-------------------------|-------------3-0-2-|-------------------------|-15\--|
|-------------------------|-------------------|-------------------------|------|
|-------------------------|-------------------|-------------------------|------|

----------------------------------------------
                                                                        ----3-
Riff 1 X 2, at the end of the second time, slide out insdeat of playing 0-1---
                                                                        ------
----------------------------------------------

PLAY UNDER SOLO
|-----------|-----------|------------|--------------|
|o----------|-----------|------------|-------------o|
|-----------|-----------|------------|--------------|
|-----------|-3----2----|-3----------|--------------|
|o-7--------|-5----3----|-5-------5--|-5-------3-2-o|
|--5--------|-----------|------------|-7------------| X 4

----------------------------------------------

 Riff 2
 Q=120

     PM-----------------|
|------------------------------|
|------------------------------|
|------------------------------|
|------------------------------|
|--7-7-7-7---7-7-7---7-7-------|
|--5-5-5-5---5-5-5---5-5-3p0---| X 2




    PM----------------|          PM--------|
|----------------------------|-----------------------|
|----------------------------|-----------------------|
|----------------------------|-----------------------|
|----------------------------|-----------------------|
|-3-3-3-3---3-3-3---3-3------|-3-3-3-3---3-3-3-2-0---|
|-1-1-1-1---1-1-1---1-1-3p1--|-1-1-1-1---1-1-------3-|


    PM----------------|          PM------------------------|
|----------------------------|-------------------------------|
|----------------------------|-------------------------------|
|----------------------------|-------------------------------|
|----------------------------|-------------------------------|
|-7-7-7-7---7-7-7---7-7------|-7-7-7-7---7-7-7---7-7-7---7-7-|
|-5-5-5-5---5-5-5---5-5-3-0--|-5-5-5-5---5-5-5---5-5-5---5-5-|


|---------------------------|---------------------|
|---------------------------|---------------------|
|---------------------------|---------------------|
|-7-7-7-7-7-7-7-7-7---------|-9-9-9-9-9-9-2-0-----|
|-5-5-5-5-5-5-5-5-5-5-3-2-0-|-7-7-7-7-7-7-----3-2-|
|---------------------------|---------------------|



 Lead Section
      PM----------------------|
|---------------------------------------|
|---------------------------------------|
|---------------------------------------|
|---------------------------------------|
|--7--7--7--7-----7--7--7---7-7---------|
|--5--5--5--5-----5--5--5---5-5-3-0-----|
|
|  E.    S  S  S  S  S  Q       E     E
|---------------------------------------|
|---------------------------------------|
|---------------------------------------|
|-14----14-17-14-16-14-12-------9----10-|
|---------------------------------------|
|---------------------------------------|


      PM-----------------------|             PM----------------------|
|-------------------------------------|-------------------------------------|
|-------------------------------------|-------------------------------------|
|-------------------------------------|-------------------------------------|
|-------------------------------------|-------------------------------------|
|--7--7--7--7-----7--7--7----7-7------|--3---3--3--3-----3--3-3----3-3------|
|--5--5--5--5-----5--5--5----5-5-3-0--|--1---1--1--1-----1--1-1----1-1-3-1--|
|
|  E.    S  S  S  S  S  Q E  E           E.  S  S  S  S  S  Q E  E
|-------------------------------------|-------------------------------------|
|-------------------------------------|-------------------------------------|
|-------------------------------------|-------------------------------------|
|-14----14-17-14-16-14-12-9-10--------|-14--14-17-14-16-14-12-9-10----------|
|-------------------------------------|-------------------------------------|
|-------------------------------------|-------------------------------------|


      PM------------|
|-------------------------------------------|
|-------------------------------------------|
|-------------------------------------------|
|-------------------------------------------|
|--3--3--3--3-----3--3--3--2-----0----------|
|--1--1--1--1-----1--1-----------------3----|
|
|-------------------------------------------|
|-------------------------------------------|
|-------------------------------------------|
|-14----14-17-14-16-14-12-16-12-14-12-------|
|-------------------------------------12----|
|-------------------------------------------|


      PM----------------------|
|---------------------------------------|
|---------------------------------------|
|---------------------------------------|
|---------------------------------------|
|--7--7--7--7-----7--7--7---7-7---------|
|--5--5--5--5-----5--5--5---5-5-3-0-----|
|
|---------------------------------------|
|---------------------------------------|
|---------------------------------------|
|-14----14-17-14-16-14-12-------9----10-|
|---------------------------------------|
|---------------------------------------|


      PM-------------------------------|
|----------------------------------------|
|----------------------------------------|
|----------------------------------------|
|----------------------------------------|
|--7--7--7--7-----7--7--7---7-7-7----7-7-|
|--5--5--5--5-----5--5--5---5-5-5----5-5-|
|
|----------------------------------------|
|----------------------------------------|
|----------------------------------------|
|-14----14-17-14-16-14-12-------9---10---|
|----------------------------------------|
|----------------------------------------|


|------------------------------------|-----------------------------------|
|------------------------------------|-----------------------------------|
|------------------------------------|-----------------------------------|
|--5--5--5--5-----5--5--5-5-5-5--5-5-|-----------------------------------|
|--3--3--3--3-----3--3--3-3-3-3--3-3-|--5--5-5--5-----5-5--3--2--0-------|
|------------------------------------|--3--3-3--3-----3-3--------------3-|
|
| Gtr III
|------------------------------------|-----------------------------------|
|------------------------------------|-----------------------------------|
|------------------------------------|----16---17-16-14---17-16-17-16-14-|
|-14----14-17-14-16-14-12-----9-10---|-14--------------------------------|
|------------------------------------|-----------------------------------|
|------------------------------------|-----------------------------------|
|
| Gtr IV
|------------------------------------|-----------------------------------|
|------------------------------------|-----------------------------------|
|------------------------------------|----16---17-16-14---17-16-17-16-14-|
|-14----14-17-14-16-14-12-----9-10---|-14--------------------------------|
|------------------------------------|-----------------------------------|
|------------------------------------|-----------------------------------|


      PM----------------------|
|----------------------------------------|
|----------------------------------------|
|----------------------------------------|
|----------------------------------------|
|--7--7--7--7-----7--7--7---7-7----------|
|--5--5--5--5-----5--5--5---5-5--3-0-----|
|
|----------------------------------------|
|----------------------------------------|
|----------------------------------------|
|-14----14-17-14-16-14-12--------9----10-|
|----------------------------------------|
|----------------------------------------|
|
|----------------------------------------|
|----------------------------------------|
|----------------------------------------|
|-10----10-14-10-12-10--9----------------|
|-------------------------------10-----7-|
|----------------------------------------|


      PM----------------------|
|----------------------------------------|
|----------------------------------------|
|----------------------------------------|
|----------------------------------------|
|--7--7--7--7-----7--7--7---7-7----------|
|--5--5--5--5-----5--5--5---5-5--3-0-----|
|
|----------------------------------------|
|----------------------------------------|
|----------------------------------------|
|-14----14-17-14-16-14-12--------9----10-|
|----------------------------------------|
|----------------------------------------|
|
|----------------------------------------|
|----------------------------------------|
|----------------------------------------|
|-10----10-14-10-12-10--9--------------7-|
|-------------------------------10-------|
|----------------------------------------|


      PM----------------------|                PM------------|
|----------------------------------------|-------------------------------------|
|----------------------------------------|-------------------------------------|
|----------------------------------------|-------------------------------------|
|----------------------------------------|-------------------------------------|
|--3--3--3--3-----3--3--3---3-3----------|--3--3--3--3-----3--3--3--2--0-------|
|--1--1--1--1-----1--1--1---1-1--3-1-----|--1--1--1--1-----1--1--------------3-|
|
|----------------------------------------|-------------------------------------|
|----------------------------------------|-------------------------------------|
|----------------------------------------|-------------------------------------|
|-14----14-17-14-16-14-12--------9----10-|-14----14-17-14-16-14-12-16-17-16-14-|
|----------------------------------------|-------------------------------------|
|----------------------------------------|-------------------------------------|
|
|----------------------------------------|-------------------------------------|
|----------------------------------------|-------------------------------------|
|----------------------------------------|-------------------------------------|
|-10----10-14-10-12-10--9--------------7-|-10----10-14-10-12-10--9-12-14-10--9-|
|-------------------------------10-------|-------------------------------------|
|----------------------------------------|-------------------------------------|


      PM----------------------|
|----------------------------------------|
|----------------------------------------|
|----------------------------------------|
|----------------------------------------|
|--7--7--7--7-----7--7--7---7-7----------|
|--5--5--5--5-----5--5--5---5-5--3-0-----|
|
|----------------------------------------|
|----------------------------------------|
|----------------------------------------|
|-14----14-17-14-16-14-12--------9----10-|
|----------------------------------------|
|----------------------------------------|
|
|----------------------------------------|
|----------------------------------------|
|----------------------------------------|
|-10----10-14-10-12-10--9--------------7-|
|-------------------------------10-------|
|----------------------------------------|


      PM--------------------------------|
|-----------------------------------------|
|-----------------------------------------|
|-----------------------------------------|
|-----------------------------------------|
|--7--7--7--7-----7--7--7---7-7--7----7-7-|
|--5--5--5--5-----5--5--5---5-5--5----5-5-|
|
|-----------------------------------------|
|-----------------------------------------|
|-----------------------------------------|
|-14----14-17-14-16-14-12--------9---10---|
|-----------------------------------------|
|-----------------------------------------|
|
|-----------------------------------------|
|-----------------------------------------|
|-----------------------------------------|
|-10----10-14-10-12-10--9-------------7---|
|-------------------------------10--------|
|-----------------------------------------|


|-------------------------------------|
|-------------------------------------|
|-------------------------------------|
|--5--5--5--5-----5--5--5-5-5--5--5-5-|
|--3--3--3--3-----3--3--3-3-3--3--3-3-|
|-------------------------------------|
|
|-------------------------------------|
|-------------------------------------|
|-------------------------------------|
|-14----14-17-14-16-14-12------9-10---|
|-------------------------------------|
|-------------------------------------|
|
|-------------------------------------|
|-------------------------------------|
|-------------------------------------|
|-10----10-14-10-12-10--9---------7---|
|-----------------------------10------|
|-------------------------------------|




|----------------------------------------|
|----------------------------------------|
|----------------------------------------|
|----------------------------------------|
|--5--5--5--5-----5--5--3--2-----0-------|
|--3--3--3--3-----3--3-----------------3-|
|
|----------------------------------------|
|----------------------------------------|
|----------------------------------------|
|-14----14-17-14-16-14-12-16-12-14-12----|
|-------------------------------------12-|
|----------------------------------------|
|
|----------------------------------------|
|----------------------------------------|
|----------------------------------------|
|-10----10-14-10-12-10--9-12--9-10--9----|
|--------------------------------------9-|
|----------------------------------------|

 UNDER MAIN SOLO

|---------------|
|o--------------|
|---------------|
|--2------------|
|o-0----5--2-5--|
|-------3--0-3--|

|-------------|------------------|--------------|-------------|
|-------------|------------------|--------------|-------------|
|-------------|------------------|--------------|-------------|
|-2-----------|------------------|--------------|-2-----------|
|-0----5--2-5-|-3----------------|-2----3-2-0---|-0----5--2-5-|
|------3--0-3-|-1----1--3-(3)-1--|-0----------3-|------3--0-3-|


|-------------|----------|---------------|
|-------------|----------|--------------o|
|-------------|----------|---------------|
|-2----2--4-5-|----------|------2-0------|
|-0----0--2-3-|-2--------|-3--------3-2-o|
|-------------|-0--------|-1-------------|


 STILL UNDER SOLO...
    PM----------------|
|-----------------------------|
|-----------------------------|
|-----------------------------|
|-----------------------------|
|-7-7-7-7---7-7-7---7-7-------|
|-5-5-5-5---5-5-5---5-5-3-0---|


    PM----------------|
|----------------------------|
|----------------------------|
|----------------------------|
|----------------------------|
|-7-7-7-7---7-7-7---7-7------|
|-5-5-5-5---5-5-5---5-5-3-0--|


    PM----------------|          PM--------|
|----------------------------|-----------------------|
|----------------------------|-----------------------|
|----------------------------|-----------------------|
|----------------------------|-----------------------|
|-3-3-3-3---3-3-3---3-3------|-3-3-3-3---3-3-3-2-0---|
|-1-1-1-1---1-1-1---1-1-3-1--|-1-1-1-1---1-1-------3-|


    PM----------------|          PM-----------------------|
|----------------------------|------------------------------|
|----------------------------|------------------------------|
|----------------------------|------------------------------|
|----------------------------|------------------------------|
|-7-7-7-7---7-7-7---7-7------|-7-7-7-7---7-7-7--7-7-7---7-7-|
|-5-5-5-5---5-5-5---5-5-3-0--|-5-5-5-5---5-5-5--5-5-5---5-5-|


                                                    PM----------------|
|-------------------------|---------------------|----------------------------|
|-------------------------|---------------------|----------------------------|
|-------------------------|---------------------|----------------------------|
|-5-5-5-5-5-5-5-5-5-5-5-5-|-9-9-9-9-9-9---------|----------------------------|
|-3-3-3-3-3-3-3-3-3-3-3-3-|-7-7-7-7-7-7-3-2-0---|-7-7-7-7---7-7-7---7-7------|
|-------------------------|-------------------3-|-5-5-5-5---5-5-5---5-5-3-0--|


    PM----------------|
|----------------------------|
|----------------------------|
|----------------------------|
|----------------------------|
|-7-7-7-7---7-7-7---7-7------|
|-5-5-5-5---5-5-5---5-5-3-0--|


    PM----------------|          PM--------|
|----------------------------|-----------------------|
|----------------------------|-----------------------|
|----------------------------|-----------------------|
|----------------------------|-----------------------|
|-3-3-3-3---3-3-3---3-3------|-3-3-3-3---3-3-3-2-0---|
|-1-1-1-1---1-1-1---1-1-3-1--|-1-1-1-1---1-1-------3-|


    PM----------------|          PM------------------------|
|----------------------------|-------------------------------|
|----------------------------|-------------------------------|
|----------------------------|-------------------------------|
|----------------------------|-------------------------------|
|-7-7-7-7---7-7-7---7-7------|-7-7-7-7---7-7-7---7-7-7---7-7-|
|-5-5-5-5---5-5-5---5-5-3-0--|-5-5-5-5---5-5-5---5-5-5---5-5-|


|-------------------------|---------------------|
|-------------------------|---------------------|
|-------------------------|---------------------|
|-5-5-5-5-5-5-5-5-5-5-5-5-|-9-9-9-9-9-9---------|
|-3-3-3-3-3-3-3-3-3-3-3-3-|-7-7-7-7-7-7-3-2-0---|
|-------------------------|-------------------3-|


 Lead Section 2/Outro
|----------------------------------|
|----------------------------------|
|----------------------------------|
|----------------------------------|
|--7-------------------------------|
|--5-------------------------------|
|
|----------------------------------|
|----------------------------------|
|----------------------------------|
|-14-----14-17-14-16-14-12---9-10--|
|----------------------------------|
|----------------------------------|
|
|----------------------------------|
|----------------------------------|
|----------------------------------|
|-10-----10-14-10-12-10--9------7--|
|---------------------------10-----|
|----------------------------------|


|--------------------------------|------------------------------|
|--------------------------------|------------------------------|
|--------------------------------|------------------------------|
|--------------------------------|------------------------------|
|--7--------------------5---2--5-|--3---------------------------|
|--5--------------------3---0--3-|--1---------------------------|
|
|--------------------------------|------------------------------|
|--------------------------------|------------------------------|
|--------------------------------|------------------------------|
|-14----14-17-14-16-14-12---9-10-|-14--14-17-14-16-14-12---9-10-|
|--------------------------------|------------------------------|
|--------------------------------|------------------------------|
|
|--------------------------------|------------------------------|
|--------------------------------|------------------------------|
|--------------------------------|------------------------------|
|-10----10-14-10-12-10--9------7-|-10--10-14-10-12-10--9------7-|
|--------------------------10----|------------------------10----|
|--------------------------------|------------------------------|



|-----------------------------------------|
|-----------------------------------------|
|-----------------------------------------|
|-----------------------------------------|
|--3--------------------------------------|
|--1--------------------------------------|
|
|-----------------------------------------|
|-----------------------------------------|
|-----------------------------------------|
|-14----14-17-14-16-14-12-16-12-14-12-----|
|-------------------------------------12--|
|-----------------------------------------|
|
|-----------------------------------------|
|-----------------------------------------|
|-----------------------------------------|
|-10----10-14-10-12-10--9-12--9-10--9-----|
|--------------------------------------9--|
|-----------------------------------------|


      PM----------------------|
|----------------------------------------|
|----------------------------------------|
|----------------------------------------|
|----------------------------------------|
|--7--7--7--7-----7--7--7---7-7----------|
|--5--5--5--5-----5--5--5---5-5--3-0-----|
|
|----------------------------------------|
|----------------------------------------|
|----------------------------------------|
|-14----14-17-14-16-14-12--------9----10-|
|----------------------------------------|
|----------------------------------------|
|
|----------------------------------------|
|----------------------------------------|
|----------------------------------------|
|-10----10-14-10-12-10--9--------------7-|
|-------------------------------10-------|
|----------------------------------------|


      PM----------------------|
|----------------------------------------|
|----------------------------------------|
|----------------------------------------|
|----------------------------------------|
|--7--7--7--7-----7--7--7---7-7----------|
|--5--5--5--5-----5--5--5---5-5--3-0-----|
|
|----------------------------------------|
|----------------------------------------|
|----------------------------------------|
|-14----14-17-14-16-14-12--------9----10-|
|----------------------------------------|
|----------------------------------------|
|
|----------------------------------------|
|----------------------------------------|
|----------------------------------------|
|-10----10-14-10-12-10--9--------------7-|
|-------------------------------10-------|
|----------------------------------------|


      PM----------------------|
|----------------------------------------|
|----------------------------------------|
|----------------------------------------|
|----------------------------------------|
|--3--3--3--3-----3--3--3---3-3----------|
|--1--1--1--1-----1--1--1---1-1--3-1-----|
|
|----------------------------------------|
|----------------------------------------|
|----------------------------------------|
|-14----14-17-14-16-14-12--------9----10-|
|----------------------------------------|
|----------------------------------------|
|
|----------------------------------------|
|----------------------------------------|
|----------------------------------------|
|-10----10-14-10-12-10--9--------------7-|
|-------------------------------10-------|
|----------------------------------------|


      PM------------|                          PM----------------------|
|----------------------------------------|-------------------------------------|
|----------------------------------------|-------------------------------------|
|----------------------------------------|-------------------------------------|
|----------------------------------------|-------------------------------------|
|--3--3--3--3-----3--3--3--2-----0-------|--7--7--7--7-----7--7--7---7-7-------|
|--1--1--1--1-----1--1-----------------3-|--5--5--5--5-----5--5--5---5-5--3-0--|
|
|----------------------------------------|-------------------------------------|
|----------------------------------------|-------------------------------------|
|----------------------------------------|-------------------------------------|
|-14----14-17-14-16-14-12-16-12-14-12----|-14----14-17-14-16-14-12-------9--10-|
|-------------------------------------12-|-------------------------------------|
|----------------------------------------|-------------------------------------|
|
|----------------------------------------|-------------------------------------|
|----------------------------------------|-------------------------------------|
|----------------------------------------|-------------------------------------|
|-10----10-14-10-12-10--9-12--9-10--9----|-10----10-14-10-12-10--9----------7--|
|--------------------------------------9-|-------------------------------10----|
|----------------------------------------|-------------------------------------|


      PM--------------------------------|
|-----------------------------------------|
|-----------------------------------------|
|-----------------------------------------|
|-----------------------------------------|
|--7--7--7--7-----7--7--7---7-7--7----7-7-|
|--5--5--5--5-----5--5--5---5-5--5----5-5-|
|
|-----------------------------------------|
|-----------------------------------------|
|-----------------------------------------|
|-14----14-17-14-16-14-12--------9---10---|
|-----------------------------------------|
|-----------------------------------------|
|
|-----------------------------------------|
|-----------------------------------------|
|-----------------------------------------|
|-10----10-14-10-12-10--9-------------7---|
|-------------------------------10--------|
|-----------------------------------------|


|-------------------------------------|----------------------------------------|
|-------------------------------------|----------------------------------------|
|-------------------------------------|----------------------------------------|
|--5--5--5--5-----5--5--5-5-5--5--5-5-|--9--9--9--9-----9--9-------------------|
|--3--3--3--3-----3--3--3-3-3--3--3-3-|--7--7--7--7-----7--7--3--2-----0-------|
|-------------------------------------|--------------------------------------3-|
|
|-------------------------------------|----------------------------------------|
|-------------------------------------|----------------------------------------|
|-------------------------------------|----------------------------------------|
|-14----14-17-14-16-14-12------9-10---|-14----14-17-14-16-14-12-16-12-14-12----|
|-------------------------------------|-------------------------------------12-|
|-------------------------------------|----------------------------------------|
|
|-------------------------------------|----------------------------------------|
|-------------------------------------|----------------------------------------|
|-------------------------------------|----------------------------------------|
|-10----10-14-10-12-10--9---------7---|-10----10-14-10-12-10--9-12--9-10--9----|
|-----------------------------10------|--------------------------------------9-|
|-------------------------------------|----------------------------------------|


|------------------------------|------------------------------|
|------------------------------|------------------------------|
|------------------------------|------------------------------|
|--2---------------------------|--2---------------------------|
|--0------------------5---2--5-|--0------------------5---2--5-|
|---------------------3---0--3-|---------------------3---0--3-|
|
|------------------------------|------------------------------|
|------------------------------|------------------------------|
|------------------------------|------------------------------|
|-14--14-17-14-16-14-12---9-10-|-14--14-17-14-16-14-12---9-10-|
|------------------------------|------------------------------|
|------------------------------|------------------------------|
|
|------------------------------|------------------------------|
|------------------------------|------------------------------|
|------------------------------|------------------------------|
|-10--10-14-10-12-10--9------7-|-10--10-14-10-12-10--9------7-|
|------------------------10----|------------------------10----|
|------------------------------|------------------------------|


|------------------------------------|
|------------------------------------|
|------------------------------------|
|------------------------------------|
|--3---------------------------------|
|--1------------------1--3-(3)-1-----|
|
|------------------------------------|
|------------------------------------|
|------------------------------------|
|-14--14-17-14-16-14-12-----9-----10-|
|------------------------------------|
|------------------------------------|
|
|------------------------------------|
|------------------------------------|
|------------------------------------|
|-10--10-14-10-12-10--9------------7-|
|--------------------------10--------|
|------------------------------------|


|--------------------------------------|
|--------------------------------------|
|--------------------------------------|
|--------------------------------------|
|--2------------------3--2-----0-------|
|--0---------------------------------3-|
|
|--------------------------------------|
|--------------------------------------|
|--------------------------------------|
|-14--14-17-14-16-14-12-16-12-14-12----|
|-----------------------------------12-|
|--------------------------------------|
|
|--------------------------------------|
|--------------------------------------|
|--------------------------------------|
|-10--10-14-10-12-10--9-12--9-10--9----|
|------------------------------------9-|
|--------------------------------------|



|------------------------------|-------------------------------|
|------------------------------|-------------------------------|
|------------------------------|-------------------------------|
|--2---------------------------|--2------------------2---4--5--|
|--0------------------5---2--5-|--0------------------0---2--3--|
|---------------------3---0--3-|-------------------------------|
|
|------------------------------|-------------------------------|
|------------------------------|-------------------------------|
|------------------------------|-------------------------------|
|-14--14-17-14-16-14-12---9-10-|-14--14-17-14-16-14-12---9-10--|
|------------------------------|-------------------------------|
|------------------------------|-------------------------------|
|
|------------------------------|-------------------------------|
|------------------------------|-------------------------------|
|------------------------------|-------------------------------|
|-10--10-14-10-12-10--9------7-|-10--10-14-10-12-10--9------7--|
|------------------------10----|------------------------10-----|
|------------------------------|-------------------------------|



|------------------------------|--------------------------------------|
|------------------------------|--------------------------------------|
|------------------------------|--------------------------------------|
|------------------------------|---------------------2--0-------------|
|--2---------------------------|--3---------------------------3-----2-|
|--0---------------------------|--1-----------------------------------|
|
|------------------------------|--------------------------------------|
|------------------------------|--------------------------------------|
|------------------------------|--------------------------------------|
|-14--14-17-14-16-14-12---9-10-|-14--14-17-14-16-14-12-16-12-14-12----|
|------------------------------|-----------------------------------12-|
|------------------------------|--------------------------------------|
|
|------------------------------|--------------------------------------|
|------------------------------|--------------------------------------|
|------------------------------|--------------------------------------|
|-10--10-14-10-12-10--9------7-|-10--10-14-10-12-10--9-12--9-10--9----|
|------------------------10----|------------------------------------9-|
|------------------------------|--------------------------------------|


|--------------------------------|
|--------------------------------|
|--------------------------------|
|--2-----------------------------|
|--0--------------------5---2--5-|
|-----------------------3---0--3-|
|
|--------------------------------|
|--------------------------------|
|--------------------------------|
|-14----14-17-14-16-14-12---9-10-|
|--------------------------------|
|--------------------------------|
|
|--------------------------------|
|--------------------------------|
|--------------------------------|
|-10----10-14-10-12-10--9------7-|
|--------------------------10----|
|--------------------------------|



|---------------*|
|---------------*|
|---------------*|
|---------------*|
|--7------------*|
|--5------------*|
|
|---------------*|
|---------------*|
|---------------*|
|-14\-----------*|
|---------------*|
|---------------*|
|
|---------------*|
|---------------*|
|---------------*|
|-14\-----------*|
|---------------*|
|---------------*|



Tablature Legend
----------------
 h   - hammer-on
 p   - pull-off
 b   - bend
 pb  - pre-bend
 r   - bend release (if no number after the r, then release immediately)
 /\  - slide into or out of (from/to "nowhere")
 s   - legato slide
 S   - shift slide
<n>  - natural harmonic
[n]  - artificial harmonic
n(n) - tapped harmonic
 ~   - vibrato
 tr  - trill
 T   - tap
 TP  - trem. picking
 PM  - palm muting
\n/  - tremolo bar dip; n = amount to dip
 \n  - tremolo bar down
 n/  - tremolo bar up
/n\  - tremolo bar inverted dip
 =   - hold bend; also acts as connecting device for hammers/pulls
 <>  - volume swell (louder/softer)
 x   - on rhythm slash represents muted slash
 o   - on rhythm slash represents single note slash

Misc Legend
-----------
 |  - bar
||  - double bar
||o - repeat start
o|| - repeat end
*|  - double bar (ending)
 :  - bar (freetime)
 $  - Segno
 &  - Coda
Tempo markers - <E/E./Q/Q./H/H.> = BPM(8/16=s8/s16), where s8 = swing 8ths,
 s16 = swing 16ths


*****************************************************
* Generated using Power Tab Editor by Brad Larsen -
 http://powertab.guitarnetwork.org *
***************************************************************************

  Visit MetalTabs.com for more metal tablature

bottom separator

Contact Us | Privacy Policy | Disclaimer | Legal Notice
Copyright © 2001-2014 MetalTabs.com. All Rights Reserved.