top separator

Home

Forum

FAQ

Contact Us

Link to Us

MetalTabs.com logo

Bands

0-9

A

B

C

D

E

F

G

H

I

J

K

L

M

N

O

P

Q

R

S

T

U

V

W

X

Y

Z

Lz Rockit - "Chain of Fools" Guitar Tab

Plain Text Version
More Lz Rockit Tabs

Hits: 1278
Rated: 5.00 out of 5 (1 vote)
Updated: 2006-11-27 05:52:01

By:

Laaz-Rockit1988


#----------------------------------PLEASE NOTE---------------------------------#
#This file is the author's own work and represents their interpretation of the #
#song. You may only use this file for private study, scholarship, or research. #
#Unless specified otherwise, this is NOT an official tab from the band members.#
#------------------------------------------------------------------------------#

  Visit MetalTabs.com for more metal tablature
  
Laaz Rockit
Annihilation Principle
Chain Of Fools

By Adam Kerbache Laaz-Rockit-1988@hotmail.com

I wrote this tab on guitar pro so this has just been exported to ASCII
and pasted on here for you Metal Heads without Guitar Pro.
I havent the solo tabbed cause im rubbish at tabbing solos,
but if any one is intrested in working with me to tab it and other Laaz tunes,
please send me an email...

Enjoy



                                                                     Laaz Rockit
Guitar 1 (Aaron Jellum)



             W                   W                   W
E||-------|-------------------|-------------------|-------------------|
B||-------|-------------------|-------------------|-------------------|
G||-------|--4----------------|--5----------------|--6----------------|
D||-------|--4----------------|--5----------------|--6----------------|
A||-------|--2----------------|--3----------------|--4----------------|
E||-------|-------------------|-------------------|-------------------|


  W                   W                   W                   W
-------------------|-------------------|-------------------|-------------------|
-------------------|-------------------|-------------------|-------------------|
--7----------------|--4----------------|--5----------------|--6----------------|
--7----------------|--4----------------|--5----------------|--6----------------|
--5----------------|--2----------------|--3----------------|--4----------------|
-------------------|-------------------|-------------------|-------------------|


  W                   W                   W                   W
-------------------|-------------------|-------------------|-------------------|
-------------------|-------------------|-------------------|-------------------|
--7----------------|--4----------------|--5----------------|--6----------------|
--7----------------|--4----------------|--5----------------|--6----------------|
--5----------------|--2----------------|--3----------------|--4----------------|
-------------------|-------------------|-------------------|-------------------|


  W                   H        E  E  E  E     H        E  E  E  E
-------------------|-----------------------|-----------------------|
-------------------|-----------------------|-----------------------|
--7----------------|--4--------------------|--5--------------------|
--7----------------|--4--------------------|--5--------------------|
--5----------------|--2--------------------|--3--------------------|
-------------------|-----------0--0--0--0--|-----------0--0--0--0--|


  H        E  E  E  E     H        E  E  E  E     H        E  E  E  E
-----------------------|-----------------------|-----------------------|
-----------------------|-----------------------|-----------------------|
--6--------------------|--7--------------------|--4--------------------|
--6--------------------|--7--------------------|--4--------------------|
--4--------------------|--5--------------------|--2--------------------|
-----------0--0--0--0--|-----------0--0--0--0--|-----------0--0--0--0--|


  H        E  E  E  E     H        E  E  E  E     H        E  E  E  E
-----------------------|-----------------------|-----------------------|
-----------------------|-----------------------|-----------------------|
--5--------------------|--6--------------------|--7--------------------|
--5--------------------|--6--------------------|--7--------------------|
--3--------------------|--4--------------------|--5--------------------|
-----------0--0--0--0--|-----------0--0--0--0--|-----------0--0--0--0--|


  H        E  E  E  E     H        E  E  E  E     H        E  E  E  E
-----------------------|-----------------------|-----------------------|
-----------------------|-----------------------|-----------------------|
--4--------------------|--5--------------------|--6--------------------|
--4--------------------|--5--------------------|--6--------------------|
--2--------------------|--3--------------------|--4--------------------|
-----------0--0--0--0--|-----------0--0--0--0--|-----------0--0--0--0--|


  H        E  E  E  E     E  E  E  E  E  E  E  E     E  E  E  E  E  E  E  E
-----------------------|--------------------------|--------------------------|
-----------------------|--------------------------|--------------------------|
--7--------------------|--4-----------5-----------|--6-----------7-----------|
--7--------------------|--4-----------5-----------|--6-----------7-----------|
--5--------------------|--2-----------3-----------|--4-----------5-----------|
-----------0--0--0--0--|-----0--0--0-----0--0--0--|-----0--0--0-----0--0--0--|


  E  E  E  E  E  E  E  E     E  E  E  E  H           E  E  E  E  E  E  E  E
--------------------------|-----------------------|--------------------------|
--------------------------|-----------------------|--------------------------|
--4-----------5-----------|--6-----------7--------|--4-----------5-----------|
--4-----------5-----------|--6-----------7--------|--4-----------5-----------|
--2-----------3-----------|--4-----------5--------|--2-----------3-----------|
-----0--0--0-----0--0--0--|-----0--0--0-----------|-----0--0--0-----0--0--0--|


  E  E  E  E  E  E  E  E     E  E  E  E  E  E  E  E     E  E  E  E  H
--------------------------|--------------------------|-----------------------|
--------------------------|--------------------------|-----------------------|
--6-----------7-----------|--4-----------5-----------|--6-----------7--------|
--6-----------7-----------|--4-----------5-----------|--6-----------7--------|
--4-----------5-----------|--2-----------3-----------|--4-----------5--------|
-----0--0--0-----0--0--0--|-----0--0--0-----0--0--0--|-----0--0--0-----------|


  E  E  E  E  E  E  E  E     E  E  E  E  E  E  E  E
--------------------------|--------------------------|
--------------------------|--------------------------|
--4-----------5-----------|--6-----------7-----------|
--4-----------5-----------|--6-----------7-----------|
--2-----------3-----------|--4-----------5-----------|
-----0--0--0-----0--0--0--|-----0--0--0-----0--0--0--|


  E  E  E  E  E  E  E  E     E  E  E  E  H           E  E  E  E  E  E  E  E
--------------------------|-----------------------|--------------------------|
--------------------------|-----------------------|--------------------------|
--4-----------5-----------|--6-----------7--------|--4-----------5-----------|
--4-----------5-----------|--6-----------7--------|--4-----------5-----------|
--2-----------3-----------|--4-----------5--------|--2-----------3-----------|
-----0--0--0-----0--0--0--|-----0--0--0-----------|-----0--0--0-----0--0--0--|


  E  E  E  E  E  E  E  E     E  E  E  E  E  E  E  E     E  E  E  E  H
--------------------------|--------------------------|-----------------------|
--------------------------|--------------------------|-----------------------|
--6-----------7-----------|--4-----------5-----------|--6-----------7--------|
--6-----------7-----------|--4-----------5-----------|--6-----------7--------|
--4-----------5-----------|--2-----------3-----------|--4-----------5--------|
-----0--0--0-----0--0--0--|-----0--0--0-----0--0--0--|-----0--0--0-----------|


  E  E  E  E  E  E  E  E     E  E  E  E  E  E  E  E
--------------------------|--------------------------|
--------------------------|--------------------------|
--4-----------5-----------|--6-----------7-----------|
--4-----------5-----------|--6-----------7-----------|
--2-----------3-----------|--4-----------5-----------|
-----0--0--0-----0--0--0--|-----0--0--0-----0--0--0--|


  E  E  E  E  E  E  E  E     E  E  E  E  H           E  E  E  E  E  E  E  E
--------------------------|-----------------------|--------------------------|
--------------------------|-----------------------|--------------------------|
--4-----------5-----------|--6-----------7--------|--4-----------5-----------|
--4-----------5-----------|--6-----------7--------|--4-----------5-----------|
--2-----------3-----------|--4-----------5--------|--2-----------3-----------|
-----0--0--0-----0--0--0--|-----0--0--0-----------|-----0--0--0-----0--0--0--|


  E  E  E  E  E  E  E  E     E  E  E  E  E  E  E  E     E  E  E  E  H
--------------------------|--------------------------|-----------------------|
--------------------------|--------------------------|-----------------------|
--6-----------7-----------|--4-----------5-----------|--6-----------7--------|
--6-----------7-----------|--4-----------5-----------|--6-----------7--------|
--4-----------5-----------|--2-----------3-----------|--4-----------5--------|
-----0--0--0-----0--0--0--|-----0--0--0-----0--0--0--|-----0--0--0-----------|


  E  E  E  E  E  E  E  E     E  E  E  E  E  E  E  E
--------------------------|--------------------------|
--------------------------|--------------------------|
--------------------------|--------------------------|
--------------------------|--------------------------|
--------------------------|--------------------------|
--3--3--3--3--3--3--3--3--|--2--2--2--2--2--2--2--2--|


  E  E  E  E  E  E  E  S S S E  S    E  E  E  E  E  E  E  E
----------------------------------|--------------------------|
----------------------------------|--------------------------|
----------------------------------|--------------------------|
----------------------------------|--------------------------|
-----2-----2-----2--3--2-3-2------|--------------------------|
--0-----0-----0--------------3--L-|--3--3--3--3--3--3--3--3--|


  E  E  E  E  E  E  E  E     E  E  E  E  E  E  E  E  S S S S
--------------------------|----------------------------------|
--------------------------|----------------------------------|
--------------------------|----------------------------------|
--------------------------|----------------------------------|
--------------------------|-----2-----2-----2--3--2--3-2-----|
--2--2--2--2--2--2--2--2--|--0-----0-----0---------------3-L-|


  E  E  E  E  E  E  E  E     E  E  E  E  E  E  E  E
--------------------------|--------------------------|
--------------------------|--------------------------|
--------------------------|--------------------------|
--------------------------|--------------------------|
--------------------------|--------------------------|
--3--3--3--3--3--3--3--3--|--2--2--2--2--2--2--2--2--|


  E  E  E  E  E  E  E  E     E  E  E  E  E  E  E  E
--------------------------|--------------------------|
--------------------------|--------------------------|
--4-----------5-----------|--6-----------7-----------|
--4-----------5-----------|--6-----------7-----------|
--2-----------3-----------|--4-----------5-----------|
-----0--0--0-----0--0--0--|-----0--0--0-----0--0--0--|


  E  E  E  E  E  E  E  E     E  E  E  E  H           E  E  E  E  E  E  E  E
--------------------------|-----------------------|--------------------------|
--------------------------|-----------------------|--------------------------|
--4-----------5-----------|--6-----------7--------|--4-----------5-----------|
--4-----------5-----------|--6-----------7--------|--4-----------5-----------|
--2-----------3-----------|--4-----------5--------|--2-----------3-----------|
-----0--0--0-----0--0--0--|-----0--0--0-----------|-----0--0--0-----0--0--0--|


  E  E  E  E  E  E  E  E     E  E  E  E  E  E  E  E     E  E  E  E  H
--------------------------|--------------------------|-----------------------|
--------------------------|--------------------------|-----------------------|
--6-----------7-----------|--4-----------5-----------|--6-----------7--------|
--6-----------7-----------|--4-----------5-----------|--6-----------7--------|
--4-----------5-----------|--2-----------3-----------|--4-----------5--------|
-----0--0--0-----0--0--0--|-----0--0--0-----0--0--0--|-----0--0--0-----------|


  E  E  E  E  E  E  E  E     E  E  E  E  E  E  E  E
--------------------------|--------------------------|
--------------------------|--------------------------|
--4-----------5-----------|--6-----------7-----------|
--4-----------5-----------|--6-----------7-----------|
--2-----------3-----------|--4-----------5-----------|
-----0--0--0-----0--0--0--|-----0--0--0-----0--0--0--|


  E  E  E  E  E  E  E  E     E  E  E  E  H           E  E  E  E  E  E  E  E
--------------------------|-----------------------|--------------------------|
--------------------------|-----------------------|--------------------------|
--4-----------5-----------|--6-----------7--------|--4-----------5-----------|
--4-----------5-----------|--6-----------7--------|--4-----------5-----------|
--2-----------3-----------|--4-----------5--------|--2-----------3-----------|
-----0--0--0-----0--0--0--|-----0--0--0-----------|-----0--0--0-----0--0--0--|


  E  E  E  E  E  E  E  E     E  E  E  E  E  E  E  E     E  E  E  E  H
--------------------------|--------------------------|-----------------------|
--------------------------|--------------------------|-----------------------|
--6-----------7-----------|--4-----------5-----------|--6-----------7--------|
--6-----------7-----------|--4-----------5-----------|--6-----------7--------|
--4-----------5-----------|--2-----------3-----------|--4-----------5--------|
-----0--0--0-----0--0--0--|-----0--0--0-----0--0--0--|-----0--0--0-----------|


  E  E  E  E  E  E  E  E     E  E  E  E  E  E  E  E
--------------------------|--------------------------|
--------------------------|--------------------------|
--4-----------5-----------|--6-----------7-----------|
--4-----------5-----------|--6-----------7-----------|
--2-----------3-----------|--4-----------5-----------|
-----0--0--0-----0--0--0--|-----0--0--0-----0--0--0--|


  E  E  E  E  E  E  E  E     E  E  E  E  H           E  E  E  E  E  E  E  E
--------------------------|-----------------------|--------------------------|
--------------------------|-----------------------|--------------------------|
--4-----------5-----------|--6-----------7--------|--4-----------5-----------|
--4-----------5-----------|--6-----------7--------|--4-----------5-----------|
--2-----------3-----------|--4-----------5--------|--2-----------3-----------|
-----0--0--0-----0--0--0--|-----0--0--0-----------|-----0--0--0-----0--0--0--|


  E  E  E  E  E  E  E  E     E  E  E  E  E  E  E  E     E  E  E  E  H
--------------------------|--------------------------|-----------------------|
--------------------------|--------------------------|-----------------------|
--6-----------7-----------|--4-----------5-----------|--6-----------7--------|
--6-----------7-----------|--4-----------5-----------|--6-----------7--------|
--4-----------5-----------|--2-----------3-----------|--4-----------5--------|
-----0--0--0-----0--0--0--|-----0--0--0-----0--0--0--|-----0--0--0-----------|


  E  E  E  E  E  E  E  E     E  E  E  E  E  E  E  E
--------------------------|--------------------------|
--------------------------|--------------------------|
--------------------------|--------------------------|
--------------------------|--------------------------|
--------------------------|--------------------------|
--3--3--3--3--3--3--3--3--|--2--2--2--2--2--2--2--2--|


  E  E  E  E  E  E  E  S S S E  S    E  E  E  E  E  E  E  E
----------------------------------|--------------------------|
----------------------------------|--------------------------|
----------------------------------|--------------------------|
----------------------------------|--------------------------|
-----2-----2-----2--3--2-3-2------|--------------------------|
--0-----0-----0--------------3--L-|--3--3--3--3--3--3--3--3--|


  E  E  E  E  E  E  E  E     E  E  E  E  E  E  E  E  S S S S
--------------------------|----------------------------------|
--------------------------|----------------------------------|
--------------------------|----------------------------------|
--------------------------|----------------------------------|
--------------------------|-----2-----2-----2--3--2--3-2-----|
--2--2--2--2--2--2--2--2--|--0-----0-----0---------------3-L-|


  E  E  E  E  E  E  E  E     E  E  E  E  E  E  E  E
--------------------------|--------------------------|
--------------------------|--------------------------|
--------------------------|--------------------------|
--------------------------|--------------------------|
--------------------------|--------------------------|
--3--3--3--3--3--3--3--3--|--2--2--2--2--2--2--2--2--|


  E  E  E  E  E  E  E  E  E  E  Q       E  E  E  E  E  E  E  E  E  E  Q
-------------------------------------|-------------------------------------|
-------------------------------------|-------------------------------------|
-----4-----5-----4-----5-------------|-----4-----5-----4-----5-------------|
-----4-----5-----4-----5-----4-------|-----4-----5-----4-----5-----4-------|
-----2-----3-----2-----3-----2--5----|-----2-----3-----2-----3-----2--5----|
--0-----0-----0-----0-----0-----3----|--0-----0-----0-----0-----0-----3----|


  E  E  E  E  E  E  E  E     E  E  E  E  E  E  E  E
--------------------------|--------------------------|
--------------------------|--------------------------|
--------------------------|--------------------------|
--------------------------|--------------------------|
--------------------------|--------------------------|
--3--3--3--3--3--3--3--3--|--2--2--2--2--2--2--2--2--|


  E  E  E  E  E  E  E  E  E  E  Q       E  E  E  E  E  E  E  E  E  E  Q
-------------------------------------|-------------------------------------|
-------------------------------------|-------------------------------------|
-----4-----5-----4-----5-------------|-----4-----5-----4-----5-------------|
-----4-----5-----4-----5-----4-------|-----4-----5-----4-----5-----4-------|
-----2-----3-----2-----3-----2--5----|-----2-----3-----2-----3-----2--5----|
--0-----0-----0-----0-----0-----3----|--0-----0-----0-----0-----0-----3----|


  E  E  E  E  E  E  E  E     E  E  E  E  E  E  E  E
--------------------------|--------------------------|
--------------------------|--------------------------|
--------------------------|--------------------------|
--------------------------|--------------------------|
--------------------------|--------------------------|
--3--3--3--3--3--3--3--3--|--2--2--2--2--2--2--2--2--|


  E  E  E  E  E  E  E  E  E  E  Q       E  E  E  E  E  E  E  E  E  E  Q
-------------------------------------|-------------------------------------|
-------------------------------------|-------------------------------------|
-----4-----5-----4-----5-------------|-----4-----5-----4-----5-------------|
-----4-----5-----4-----5-----4-------|-----4-----5-----4-----5-----4-------|
-----2-----3-----2-----3-----2--5----|-----2-----3-----2-----3-----2--5----|
--0-----0-----0-----0-----0-----3----|--0-----0-----0-----0-----0-----3----|


  E  E  E  E  E  E  E  E     E  E  E  E  E  E  E  E
--------------------------|--------------------------|
--------------------------|--------------------------|
--------------------------|--------------------------|
--------------------------|--------------------------|
--------------------------|--------------------------|
--3--3--3--3--3--3--3--3--|--2--2--2--2--2--2--2--2--|


  E  E  E  E  E  E  E  E  E  E  Q       E  E  E  E  E  E  E  E  E  E  Q
-------------------------------------|-------------------------------------|
-------------------------------------|-------------------------------------|
-----4-----5-----4-----5-------------|-----4-----5-----4-----5-------------|
-----4-----5-----4-----5-----4-------|-----4-----5-----4-----5-----4-------|
-----2-----3-----2-----3-----2--5----|-----2-----3-----2-----3-----2--5----|
--0-----0-----0-----0-----0-----3----|--0-----0-----0-----0-----0-----3----|


  H        E  E  E  E     H        E  E  E  E     H        E  E  E  E
-----------------------|-----------------------|-----------------------|
-----------------------|-----------------------|-----------------------|
--4--------------------|--5--------------------|--6--------------------|
--4--------------------|--5--------------------|--6--------------------|
--2--------------------|--3--------------------|--4--------------------|
-----------0--0--0--0--|-----------0--0--0--0--|-----------0--0--0--0--|


  H        E  E  E  E     H        E  E  E  E     H        E  E  E  E
-----------------------|-----------------------|-----------------------|
-----------------------|-----------------------|-----------------------|
--7--------------------|--4--------------------|--5--------------------|
--7--------------------|--4--------------------|--5--------------------|
--5--------------------|--2--------------------|--3--------------------|
-----------0--0--0--0--|-----------0--0--0--0--|-----------0--0--0--0--|


  H        E  E  E  E     H        E  E  E  E     H        E  E  E  E
-----------------------|-----------------------|-----------------------|
-----------------------|-----------------------|-----------------------|
--6--------------------|--7--------------------|--4--------------------|
--6--------------------|--7--------------------|--4--------------------|
--4--------------------|--5--------------------|--2--------------------|
-----------0--0--0--0--|-----------0--0--0--0--|-----------0--0--0--0--|


  H        E  E  E  E     H        E  E  E  E     H        E  E  E  E
-----------------------|-----------------------|-----------------------|
-----------------------|-----------------------|-----------------------|
--5--------------------|--6--------------------|--7--------------------|
--5--------------------|--6--------------------|--7--------------------|
--3--------------------|--4--------------------|--5--------------------|
-----------0--0--0--0--|-----------0--0--0--0--|-----------0--0--0--0--|


  H        E  E  E  E     H        E  E  E  E     H        E  E  E  E
-----------------------|-----------------------|-----------------------|
-----------------------|-----------------------|-----------------------|
--4--------------------|--5--------------------|--6--------------------|
--4--------------------|--5--------------------|--6--------------------|
--2--------------------|--3--------------------|--4--------------------|
-----------0--0--0--0--|-----------0--0--0--0--|-----------0--0--0--0--|


                          PM   PM   PM PM PM PM    PM   PM   PM PM PM PM
  H        E  E  E  E     Q    Q    E  E  E  E     Q    Q    E  E  E  E
-----------------------|------------------------|------------------------|
-----------------------|------------------------|------------------------|
--7--------------------|------------------------|------------------------|
--7--------------------|--2----2----2--2--2--2--|--2----2----2--2--2--2--|
--5--------------------|--2----2----2--2--2--2--|--2----2----2--2--2--2--|
-----------0--0--0--0--|--0----0----0--0--0--0--|--0----0----0--0--0--0--|


  PM   PM   PM PM PM PM    PM   PM               PM   PM   PM PM PM PM
  Q    Q    E  E  E  E     Q    Q    H           Q    Q    E  E  E  E
------------------------|---------------------|------------------------|
------------------------|---------------------|------------------------|
------------------------|------------5--------|------------------------|
--2----2----2--2--2--2--|--2----2----5--------|--2----2----2--2--2--2--|
--2----2----2--2--2--2--|--2----2----3--------|--2----2----2--2--2--2--|
--0----0----0--0--0--0--|--0----0-------------|--0----0----0--0--0--0--|


  PM   PM   PM PM PM PM    PM   PM   PM PM PM PM    PM   PM
  Q    Q    E  E  E  E     Q    Q    E  E  E  E     Q    Q    H
------------------------|------------------------|---------------------|
------------------------|------------------------|---------------------|
------------------------|------------------------|------------5--------|
--2----2----2--2--2--2--|--2----2----2--2--2--2--|--2----2----5--------|
--2----2----2--2--2--2--|--2----2----2--2--2--2--|--2----2----3--------|
--0----0----0--0--0--0--|--0----0----0--0--0--0--|--0----0-------------|


  PM   PM   PM PM PM PM    PM   PM   PM PM PM PM    PM   PM   PM PM PM PM
  Q    Q    E  E  E  E     Q    Q    E  E  E  E     Q    Q    E  E  E  E
------------------------|------------------------|------------------------|
------------------------|------------------------|------------------------|
------------------------|------------------------|------------------------|
--2----2----2--2--2--2--|--2----2----2--2--2--2--|--2----2----2--2--2--2--|
--2----2----2--2--2--2--|--2----2----2--2--2--2--|--2----2----2--2--2--2--|
--0----0----0--0--0--0--|--0----0----0--0--0--0--|--0----0----0--0--0--0--|


  PM   PM               PM   PM   PM PM PM PM    PM   PM   PM PM PM PM
  Q    Q    H           Q    Q    E  E  E  E     Q    Q    E  E  E  E
---------------------|------------------------|------------------------|
---------------------|------------------------|------------------------|
------------5--------|------------------------|------------------------|
--2----2----5--------|--2----2----2--2--2--2--|--2----2----2--2--2--2--|
--2----2----3--------|--2----2----2--2--2--2--|--2----2----2--2--2--2--|
--0----0-------------|--0----0----0--0--0--0--|--0----0----0--0--0--0--|


  PM   PM   PM PM PM PM    PM   PM
  Q    Q    E  E  E  E     Q    Q    H           W
------------------------|---------------------|-------------------|
------------------------|---------------------|-------------------|
------------------------|------------5--------|-------------------|
--2----2----2--2--2--2--|--2----2----5--------|-------------------|
--2----2----2--2--2--2--|--2----2----3--------|-------------------|
--0----0----0--0--0--0--|--0----0-------------|-------------------|


  PM   PM   PM PM PM PM    PM   PM   PM PM PM PM    PM   PM   PM PM PM PM
  Q    Q    E  E  E  E     Q    Q    E  E  E  E     Q    Q    E  E  E  E
------------------------|------------------------|------------------------|
------------------------|------------------------|------------------------|
------------------------|------------------------|------------------------|
--2----2----2--2--2--2--|--2----2----2--2--2--2--|--2----2----2--2--2--2--|
--2----2----2--2--2--2--|--2----2----2--2--2--2--|--2----2----2--2--2--2--|
--0----0----0--0--0--0--|--0----0----0--0--0--0--|--0----0----0--0--0--0--|


  PM   PM               PM   PM   PM PM PM PM    PM   PM   PM PM PM PM
  Q    Q    H           Q    Q    E  E  E  E     Q    Q    E  E  E  E
---------------------|------------------------|------------------------|
---------------------|------------------------|------------------------|
------------5--------|------------------------|------------------------|
--2----2----5--------|--2----2----2--2--2--2--|--2----2----2--2--2--2--|
--2----2----3--------|--2----2----2--2--2--2--|--2----2----2--2--2--2--|
--0----0-------------|--0----0----0--0--0--0--|--0----0----0--0--0--0--|


  PM   PM   PM PM PM PM    PM   PM
  Q    Q    E  E  E  E     Q    Q    H           H        E  E  E  E
------------------------|---------------------|-----------------------|
------------------------|---------------------|-----------------------|
------------------------|------------5--------|--4--------------------|
--2----2----2--2--2--2--|--2----2----5--------|--4--------------------|
--2----2----2--2--2--2--|--2----2----3--------|--2--------------------|
--0----0----0--0--0--0--|--0----0-------------|-----------0--0--0--0--|


  H        E  E  E  E     H        E  E  E  E     H        E  E  E  E
-----------------------|-----------------------|-----------------------|
-----------------------|-----------------------|-----------------------|
--5--------------------|--6--------------------|--7--------------------|
--5--------------------|--6--------------------|--7--------------------|
--3--------------------|--4--------------------|--5--------------------|
-----------0--0--0--0--|-----------0--0--0--0--|-----------0--0--0--0--|


  H        E  E  E  E     H        E  E  E  E     H        E  E  E  E
-----------------------|-----------------------|-----------------------|
-----------------------|-----------------------|-----------------------|
--4--------------------|--5--------------------|--6--------------------|
--4--------------------|--5--------------------|--6--------------------|
--2--------------------|--3--------------------|--4--------------------|
-----------0--0--0--0--|-----------0--0--0--0--|-----------0--0--0--0--|


  H        E  E  E  E     E  E  E  E  E  E  E  E     E  E  E  E  E  E  E  E
-----------------------|--------------------------|--------------------------|
-----------------------|--------------------------|--------------------------|
--7--------------------|--4-----------5-----------|--6-----------7-----------|
--7--------------------|--4-----------5-----------|--6-----------7-----------|
--5--------------------|--2-----------3-----------|--4-----------5-----------|
-----------0--0--0--0--|-----0--0--0-----0--0--0--|-----0--0--0-----0--0--0--|


  E  E  E  E  E  E  E  E     E  E  E  E  H           E  E  E  E  E  E  E  E
--------------------------|-----------------------|--------------------------|
--------------------------|-----------------------|--------------------------|
--4-----------5-----------|--6-----------7--------|--4-----------5-----------|
--4-----------5-----------|--6-----------7--------|--4-----------5-----------|
--2-----------3-----------|--4-----------5--------|--2-----------3-----------|
-----0--0--0-----0--0--0--|-----0--0--0-----------|-----0--0--0-----0--0--0--|


  E  E  E  E  E  E  E  E     E  E  E  E  E  E  E  E     E  E  E  E  H
--------------------------|--------------------------|-----------------------|
--------------------------|--------------------------|-----------------------|
--6-----------7-----------|--4-----------5-----------|--6-----------7--------|
--6-----------7-----------|--4-----------5-----------|--6-----------7--------|
--4-----------5-----------|--2-----------3-----------|--4-----------5--------|
-----0--0--0-----0--0--0--|-----0--0--0-----0--0--0--|-----0--0--0-----------|


  E  E  E  E  E  E  E  E     E  E  E  E  E  E  E  E
--------------------------|--------------------------|
--------------------------|--------------------------|
--4-----------5-----------|--6-----------7-----------|
--4-----------5-----------|--6-----------7-----------|
--2-----------3-----------|--4-----------5-----------|
-----0--0--0-----0--0--0--|-----0--0--0-----0--0--0--|


  E  E  E  E  E  E  E  E     E  E  E  E  H           E  E  E  E  E  E  E  E
--------------------------|-----------------------|--------------------------|
--------------------------|-----------------------|--------------------------|
--4-----------5-----------|--6-----------7--------|--4-----------5-----------|
--4-----------5-----------|--6-----------7--------|--4-----------5-----------|
--2-----------3-----------|--4-----------5--------|--2-----------3-----------|
-----0--0--0-----0--0--0--|-----0--0--0-----------|-----0--0--0-----0--0--0--|


  E  E  E  E  E  E  E  E     E  E  E  E  E  E  E  E     E  E  E  E  H
--------------------------|--------------------------|-----------------------|
--------------------------|--------------------------|-----------------------|
--6-----------7-----------|--4-----------5-----------|--6-----------7--------|
--6-----------7-----------|--4-----------5-----------|--6-----------7--------|
--4-----------5-----------|--2-----------3-----------|--4-----------5--------|
-----0--0--0-----0--0--0--|-----0--0--0-----0--0--0--|-----0--0--0-----------|


  E  E  E  E  E  E  E  E     E  E  E  E  E  E  E  E
--------------------------|--------------------------|
--------------------------|--------------------------|
--------------------------|--------------------------|
--------------------------|--------------------------|
--------------------------|--------------------------|
--3--3--3--3--3--3--3--3--|--2--2--2--2--2--2--2--2--|


  E  E  E  E  E  E  E  S S S E  S    E  E  E  E  E  E  E  E
----------------------------------|--------------------------|
----------------------------------|--------------------------|
----------------------------------|--------------------------|
----------------------------------|--------------------------|
-----2-----2-----2--3--2-3-2------|--------------------------|
--0-----0-----0--------------3--L-|--3--3--3--3--3--3--3--3--|


  E  E  E  E  E  E  E  E     E  E  E  E  E  E  E  E  S S S S
--------------------------|----------------------------------|
--------------------------|----------------------------------|
--------------------------|----------------------------------|
--------------------------|----------------------------------|
--------------------------|-----2-----2-----2--3--2--3-2-----|
--2--2--2--2--2--2--2--2--|--0-----0-----0---------------3-L-|


  E  E  E  E  E  E  E  E     E  E  E  E  E  E  E  E
--------------------------|--------------------------|
--------------------------|--------------------------|
--------------------------|--------------------------|
--------------------------|--------------------------|
--------------------------|--------------------------|
--3--3--3--3--3--3--3--3--|--2--2--2--2--2--2--2--2--|


  E  E  E  E  E  E  E  E  E  E  Q       E  E  E  E  E  E  E  E  E  E  Q
-------------------------------------|-------------------------------------|
-------------------------------------|-------------------------------------|
-----4-----5-----4-----5-------------|-----4-----5-----4-----5-------------|
-----4-----5-----4-----5-----4-------|-----4-----5-----4-----5-----4-------|
-----2-----3-----2-----3-----2--5----|-----2-----3-----2-----3-----2--5----|
--0-----0-----0-----0-----0-----3----|--0-----0-----0-----0-----0-----3----|


  E  E  E  E  E  E  E  E     E  E  E  E  E  E  E  E
--------------------------|--------------------------|
--------------------------|--------------------------|
--------------------------|--------------------------|
--------------------------|--------------------------|
--------------------------|--------------------------|
--3--3--3--3--3--3--3--3--|--2--2--2--2--2--2--2--2--|


  E  E  E  E  E  E  E  E  E  E  Q       E  E  E  E  E  E  E  E  E  E  Q
-------------------------------------|-------------------------------------|
-------------------------------------|-------------------------------------|
-----4-----5-----4-----5-------------|-----4-----5-----4-----5-------------|
-----4-----5-----4-----5-----4-------|-----4-----5-----4-----5-----4-------|
-----2-----3-----2-----3-----2--5----|-----2-----3-----2-----3-----2--5----|
--0-----0-----0-----0-----0-----3----|--0-----0-----0-----0-----0-----3----|


  E  E  E  E  E  E  E  E     E  E  E  E  E  E  E  E
--------------------------|--------------------------|
--------------------------|--------------------------|
--------------------------|--------------------------|
--------------------------|--------------------------|
--------------------------|--------------------------|
--3--3--3--3--3--3--3--3--|--2--2--2--2--2--2--2--2--|


  E  E  E  E  E  E  E  E     E  E  E  E  E  E  E  E
--------------------------|--------------------------|
--------------------------|--------------------------|
--4-----------5-----------|--6-----------7-----------|
--4-----------5-----------|--6-----------7-----------|
--2-----------3-----------|--4-----------5-----------|
-----0--0--0-----0--0--0--|-----0--0--0-----0--0--0--|


  E  E  E  E  E  E  E  E     E  E  E  E  H           E  E  E  E  E  E  E  E
--------------------------|-----------------------|--------------------------|
--------------------------|-----------------------|--------------------------|
--4-----------5-----------|--6-----------7--------|--4-----------5-----------|
--4-----------5-----------|--6-----------7--------|--4-----------5-----------|
--2-----------3-----------|--4-----------5--------|--2-----------3-----------|
-----0--0--0-----0--0--0--|-----0--0--0-----------|-----0--0--0-----0--0--0--|


  E  E  E  E  E  E  E  E     E  E  E  E  E  E  E  E     E  E  E  E  H
--------------------------|--------------------------|-----------------------|
--------------------------|--------------------------|-----------------------|
--6-----------7-----------|--4-----------5-----------|--6-----------7--------|
--6-----------7-----------|--4-----------5-----------|--6-----------7--------|
--4-----------5-----------|--2-----------3-----------|--4-----------5--------|
-----0--0--0-----0--0--0--|-----0--0--0-----0--0--0--|-----0--0--0-----------|


  E  E  E  E  E  E  E  E     E  E  E  E  E  E  E  E
--------------------------|--------------------------|
--------------------------|--------------------------|
--4-----------5-----------|--6-----------7-----------|
--4-----------5-----------|--6-----------7-----------|
--2-----------3-----------|--4-----------5-----------|
-----0--0--0-----0--0--0--|-----0--0--0-----0--0--0--|


  E  E  E  E  E  E  E  E     E  E  E  E  H           E  E  E  E  E  E  E  E
--------------------------|-----------------------|--------------------------|
--------------------------|-----------------------|--------------------------|
--4-----------5-----------|--6-----------7--------|--4-----------5-----------|
--4-----------5-----------|--6-----------7--------|--4-----------5-----------|
--2-----------3-----------|--4-----------5--------|--2-----------3-----------|
-----0--0--0-----0--0--0--|-----0--0--0-----------|-----0--0--0-----0--0--0--|


  E  E  E  E  E  E  E  E     E  E  E  E  E  E  E  E     E  E  E  E  H
--------------------------|--------------------------|-----------------------|
--------------------------|--------------------------|-----------------------|
--6-----------7-----------|--4-----------5-----------|--6-----------7--------|
--6-----------7-----------|--4-----------5-----------|--6-----------7--------|
--4-----------5-----------|--2-----------3-----------|--4-----------5--------|
-----0--0--0-----0--0--0--|-----0--0--0-----0--0--0--|-----0--0--0-----------|


  E  E  E  E  E  E  E  E     E  E  E  E  E  E  E  E
--------------------------|--------------------------|
--------------------------|--------------------------|
--4-----------5-----------|--6-----------7-----------|
--4-----------5-----------|--6-----------7-----------|
--2-----------3-----------|--4-----------5-----------|
-----0--0--0-----0--0--0--|-----0--0--0-----0--0--0--|


  E  E  E  E  E  E  E  E     E  E  E  E  H
--------------------------|-----------------------||
--------------------------|-----------------------||
--4-----------5-----------|--6-----------7--------||
--4-----------5-----------|--6-----------7--------||
--2-----------3-----------|--4-----------5--------||
-----0--0--0-----0--0--0--|-----0--0--0-----------||




Phil Ketner Guitar 2



             Q    Q    Q    Q       Q    Q    Q    Q       Q    Q    Q    Q
E||-------|----------------------|----------------------|----------------------|
B||-------|----------------------|----------------------|----------------------|
G||-------|------------4---------|------------5---------|------------6---------|
D||-------|-------4---------4----|-------5---------5----|-------6---------6----|
A||-------|--2-------------------|--3-------------------|--4-------------------|
E||-------|----------------------|----------------------|----------------------|


  Q    Q    Q    Q       Q    Q    Q    Q       Q    Q    Q    Q
----------------------|----------------------|----------------------|
----------------------|----------------------|----------------------|
------------7---------|------------4---------|------------5---------|
-------7---------7----|-------4---------4----|-------5---------5----|
--5-------------------|--2-------------------|--3-------------------|
----------------------|----------------------|----------------------|


  Q    Q    Q    Q       Q    Q    Q    Q       Q    Q    Q    Q
----------------------|----------------------|----------------------|
----------------------|----------------------|----------------------|
------------6---------|------------7---------|------------4---------|
-------6---------6----|-------7---------7----|-------4---------4----|
--4-------------------|--5-------------------|--2-------------------|
----------------------|----------------------|----------------------|


  Q    Q    Q    Q       Q    Q    Q    Q       Q    Q    Q    Q
----------------------|----------------------|----------------------|
----------------------|----------------------|----------------------|
------------5---------|------------6---------|------------7---------|
-------5---------5----|-------6---------6----|-------7---------7----|
--3-------------------|--4-------------------|--5-------------------|
----------------------|----------------------|----------------------|


  H        E  E  E  E     H        E  E  E  E     H        E  E  E  E
-----------------------|-----------------------|-----------------------|
-----------------------|-----------------------|-----------------------|
--4--------------------|--5--------------------|--6--------------------|
--4--------------------|--5--------------------|--6--------------------|
--2--------------------|--3--------------------|--4--------------------|
-----------0--0--0--0--|-----------0--0--0--0--|-----------0--0--0--0--|


  H        E  E  E  E     H        E  E  E  E     H        E  E  E  E
-----------------------|-----------------------|-----------------------|
-----------------------|-----------------------|-----------------------|
--7--------------------|--4--------------------|--5--------------------|
--7--------------------|--4--------------------|--5--------------------|
--5--------------------|--2--------------------|--3--------------------|
-----------0--0--0--0--|-----------0--0--0--0--|-----------0--0--0--0--|


  H        E  E  E  E     H        E  E  E  E     H        E  E  E  E
-----------------------|-----------------------|-----------------------|
-----------------------|-----------------------|-----------------------|
--6--------------------|--7--------------------|--4--------------------|
--6--------------------|--7--------------------|--4--------------------|
--4--------------------|--5--------------------|--2--------------------|
-----------0--0--0--0--|-----------0--0--0--0--|-----------0--0--0--0--|


  H        E  E  E  E     H        E  E  E  E     H        E  E  E  E
-----------------------|-----------------------|-----------------------|
-----------------------|-----------------------|-----------------------|
--5--------------------|--6--------------------|--7--------------------|
--5--------------------|--6--------------------|--7--------------------|
--3--------------------|--4--------------------|--5--------------------|
-----------0--0--0--0--|-----------0--0--0--0--|-----------0--0--0--0--|


  E  E  E  E  E  E  E  E     E  E  E  E  E  E  E  E
--------------------------|--------------------------|
--------------------------|--------------------------|
--4-----------5-----------|--6-----------7-----------|
--4-----------5-----------|--6-----------7-----------|
--2-----------3-----------|--4-----------5-----------|
-----0--0--0-----0--0--0--|-----0--0--0-----0--0--0--|


  E  E  E  E  E  E  E  E     E  E  E  E  H           E  E  E  E  E  E  E  E
--------------------------|-----------------------|--------------------------|
--------------------------|-----------------------|--------------------------|
--4-----------5-----------|--6-----------7--------|--4-----------5-----------|
--4-----------5-----------|--6-----------7--------|--4-----------5-----------|
--2-----------3-----------|--4-----------5--------|--2-----------3-----------|
-----0--0--0-----0--0--0--|-----0--0--0-----------|-----0--0--0-----0--0--0--|


  E  E  E  E  E  E  E  E     E  E  E  E  E  E  E  E     E  E  E  E  H
--------------------------|--------------------------|-----------------------|
--------------------------|--------------------------|-----------------------|
--6-----------7-----------|--4-----------5-----------|--6-----------7--------|
--6-----------7-----------|--4-----------5-----------|--6-----------7--------|
--4-----------5-----------|--2-----------3-----------|--4-----------5--------|
-----0--0--0-----0--0--0--|-----0--0--0-----0--0--0--|-----0--0--0-----------|


  E  E  E  E  E  E  E  E     E  E  E  E  E  E  E  E
--------------------------|--------------------------|
--------------------------|--------------------------|
--4-----------5-----------|--6-----------7-----------|
--4-----------5-----------|--6-----------7-----------|
--2-----------3-----------|--4-----------5-----------|
-----0--0--0-----0--0--0--|-----0--0--0-----0--0--0--|


  E  E  E  E  E  E  E  E     E  E  E  E  H           E  E  E  E  E  E  E  E
--------------------------|-----------------------|--------------------------|
--------------------------|-----------------------|--------------------------|
--4-----------5-----------|--6-----------7--------|--4-----------5-----------|
--4-----------5-----------|--6-----------7--------|--4-----------5-----------|
--2-----------3-----------|--4-----------5--------|--2-----------3-----------|
-----0--0--0-----0--0--0--|-----0--0--0-----------|-----0--0--0-----0--0--0--|


  E  E  E  E  E  E  E  E     E  E  E  E  E  E  E  E     E  E  E  E  H
--------------------------|--------------------------|-----------------------|
--------------------------|--------------------------|-----------------------|
--6-----------7-----------|--4-----------5-----------|--6-----------7--------|
--6-----------7-----------|--4-----------5-----------|--6-----------7--------|
--4-----------5-----------|--2-----------3-----------|--4-----------5--------|
-----0--0--0-----0--0--0--|-----0--0--0-----0--0--0--|-----0--0--0-----------|


  E  E  E  E  E  E  E  E     E  E  E  E  E  E  E  E
--------------------------|--------------------------|
--------------------------|--------------------------|
--4-----------5-----------|--6-----------7-----------|
--4-----------5-----------|--6-----------7-----------|
--2-----------3-----------|--4-----------5-----------|
-----0--0--0-----0--0--0--|-----0--0--0-----0--0--0--|


  E  E  E  E  E  E  E  E     E  E  E  E  H           E  E  E  E  E  E  E  E
--------------------------|-----------------------|--------------------------|
--------------------------|-----------------------|--------------------------|
--4-----------5-----------|--6-----------7--------|--4-----------5-----------|
--4-----------5-----------|--6-----------7--------|--4-----------5-----------|
--2-----------3-----------|--4-----------5--------|--2-----------3-----------|
-----0--0--0-----0--0--0--|-----0--0--0-----------|-----0--0--0-----0--0--0--|


  E  E  E  E  E  E  E  E     E  E  E  E  E  E  E  E     E  E  E  E  H
--------------------------|--------------------------|-----------------------|
--------------------------|--------------------------|-----------------------|
--6-----------7-----------|--4-----------5-----------|--6-----------7--------|
--6-----------7-----------|--4-----------5-----------|--6-----------7--------|
--4-----------5-----------|--2-----------3-----------|--4-----------5--------|
-----0--0--0-----0--0--0--|-----0--0--0-----0--0--0--|-----0--0--0-----------|


  E  E  E  E  E  E  E  E     E  E  E  E  E  E  E  E
--------------------------|--------------------------|
--------------------------|--------------------------|
--------------------------|--------------------------|
--------------------------|--------------------------|
--------------------------|--------------------------|
--3--3--3--3--3--3--3--3--|--2--2--2--2--2--2--2--2--|


  E  E  E  E  E  E  E  S S S E  S    E  E  E  E  E  E  E  E
----------------------------------|--------------------------|
----------------------------------|--------------------------|
----------------------------------|--------------------------|
----------------------------------|--------------------------|
-----2-----2-----2--3--2-3-2------|--------------------------|
--0-----0-----0--------------3--L-|--3--3--3--3--3--3--3--3--|


  E  E  E  E  E  E  E  E     E  E  E  E  E  E  E  E  S S S S
--------------------------|----------------------------------|
--------------------------|----------------------------------|
--------------------------|----------------------------------|
--------------------------|----------------------------------|
--------------------------|-----2-----2-----2--3--2--3-2-----|
--2--2--2--2--2--2--2--2--|--0-----0-----0---------------3-L-|


  E  E  E  E  E  E  E  E     E  E  E  E  E  E  E  E
--------------------------|--------------------------|
--------------------------|--------------------------|
--------------------------|--------------------------|
--------------------------|--------------------------|
--------------------------|--------------------------|
--3--3--3--3--3--3--3--3--|--2--2--2--2--2--2--2--2--|


  E  E  E  E  E  E  E  E     E  E  E  E  E  E  E  E
--------------------------|--------------------------|
--------------------------|--------------------------|
--4-----------5-----------|--6-----------7-----------|
--4-----------5-----------|--6-----------7-----------|
--2-----------3-----------|--4-----------5-----------|
-----0--0--0-----0--0--0--|-----0--0--0-----0--0--0--|


  E  E  E  E  E  E  E  E     E  E  E  E  H           E  E  E  E  E  E  E  E
--------------------------|-----------------------|--------------------------|
--------------------------|-----------------------|--------------------------|
--4-----------5-----------|--6-----------7--------|--4-----------5-----------|
--4-----------5-----------|--6-----------7--------|--4-----------5-----------|
--2-----------3-----------|--4-----------5--------|--2-----------3-----------|
-----0--0--0-----0--0--0--|-----0--0--0-----------|-----0--0--0-----0--0--0--|


  E  E  E  E  E  E  E  E     E  E  E  E  E  E  E  E     E  E  E  E  H
--------------------------|--------------------------|-----------------------|
--------------------------|--------------------------|-----------------------|
--6-----------7-----------|--4-----------5-----------|--6-----------7--------|
--6-----------7-----------|--4-----------5-----------|--6-----------7--------|
--4-----------5-----------|--2-----------3-----------|--4-----------5--------|
-----0--0--0-----0--0--0--|-----0--0--0-----0--0--0--|-----0--0--0-----------|


  E  E  E  E  E  E  E  E     E  E  E  E  E  E  E  E
--------------------------|--------------------------|
--------------------------|--------------------------|
--4-----------5-----------|--6-----------7-----------|
--4-----------5-----------|--6-----------7-----------|
--2-----------3-----------|--4-----------5-----------|
-----0--0--0-----0--0--0--|-----0--0--0-----0--0--0--|


  E  E  E  E  E  E  E  E     E  E  E  E  H           E  E  E  E  E  E  E  E
--------------------------|-----------------------|--------------------------|
--------------------------|-----------------------|--------------------------|
--4-----------5-----------|--6-----------7--------|--4-----------5-----------|
--4-----------5-----------|--6-----------7--------|--4-----------5-----------|
--2-----------3-----------|--4-----------5--------|--2-----------3-----------|
-----0--0--0-----0--0--0--|-----0--0--0-----------|-----0--0--0-----0--0--0--|


  E  E  E  E  E  E  E  E     E  E  E  E  E  E  E  E     E  E  E  E  H
--------------------------|--------------------------|-----------------------|
--------------------------|--------------------------|-----------------------|
--6-----------7-----------|--4-----------5-----------|--6-----------7--------|
--6-----------7-----------|--4-----------5-----------|--6-----------7--------|
--4-----------5-----------|--2-----------3-----------|--4-----------5--------|
-----0--0--0-----0--0--0--|-----0--0--0-----0--0--0--|-----0--0--0-----------|


  E  E  E  E  E  E  E  E     E  E  E  E  E  E  E  E
--------------------------|--------------------------|
--------------------------|--------------------------|
--4-----------5-----------|--6-----------7-----------|
--4-----------5-----------|--6-----------7-----------|
--2-----------3-----------|--4-----------5-----------|
-----0--0--0-----0--0--0--|-----0--0--0-----0--0--0--|


  E  E  E  E  E  E  E  E     E  E  E  E  H           E  E  E  E  E  E  E  E
--------------------------|-----------------------|--------------------------|
--------------------------|-----------------------|--------------------------|
--4-----------5-----------|--6-----------7--------|--4-----------5-----------|
--4-----------5-----------|--6-----------7--------|--4-----------5-----------|
--2-----------3-----------|--4-----------5--------|--2-----------3-----------|
-----0--0--0-----0--0--0--|-----0--0--0-----------|-----0--0--0-----0--0--0--|


  E  E  E  E  E  E  E  E     E  E  E  E  E  E  E  E     E  E  E  E  H
--------------------------|--------------------------|-----------------------|
--------------------------|--------------------------|-----------------------|
--6-----------7-----------|--4-----------5-----------|--6-----------7--------|
--6-----------7-----------|--4-----------5-----------|--6-----------7--------|
--4-----------5-----------|--2-----------3-----------|--4-----------5--------|
-----0--0--0-----0--0--0--|-----0--0--0-----0--0--0--|-----0--0--0-----------|


  E  E  E  E  E  E  E  E     E  E  E  E  E  E  E  E
--------------------------|--------------------------|
--------------------------|--------------------------|
--------------------------|--------------------------|
--------------------------|--------------------------|
--------------------------|--------------------------|
--3--3--3--3--3--3--3--3--|--2--2--2--2--2--2--2--2--|


  E  E  E  E  E  E  E  S S S E  S    E  E  E  E  E  E  E  E
----------------------------------|--------------------------|
----------------------------------|--------------------------|
----------------------------------|--------------------------|
----------------------------------|--------------------------|
-----2-----2-----2--3--2-3-2------|--------------------------|
--0-----0-----0--------------3--L-|--3--3--3--3--3--3--3--3--|


  E  E  E  E  E  E  E  E     E  E  E  E  E  E  E  E  S S S S
--------------------------|----------------------------------|
--------------------------|----------------------------------|
--------------------------|----------------------------------|
--------------------------|----------------------------------|
--------------------------|-----2-----2-----2--3--2--3-2-----|
--2--2--2--2--2--2--2--2--|--0-----0-----0---------------3-L-|


  E  E  E  E  E  E  E  E     E  E  E  E  E  E  E  E
--------------------------|--------------------------|
--------------------------|--------------------------|
--------------------------|--------------------------|
--------------------------|--------------------------|
--------------------------|--------------------------|
--3--3--3--3--3--3--3--3--|--2--2--2--2--2--2--2--2--|


  E  E  E  E  E  E  E  E  E  E  Q       E  E  E  E  E  E  E  E  E  E  Q
-------------------------------------|-------------------------------------|
-------------------------------------|-------------------------------------|
-----4-----5-----4-----5-------------|-----4-----5-----4-----5-------------|
-----4-----5-----4-----5-----4-------|-----4-----5-----4-----5-----4-------|
-----2-----3-----2-----3-----2--5----|-----2-----3-----2-----3-----2--5----|
--0-----0-----0-----0-----0-----3----|--0-----0-----0-----0-----0-----3----|


  E  E  E  E  E  E  E  E     E  E  E  E  E  E  E  E
--------------------------|--------------------------|
--------------------------|--------------------------|
--------------------------|--------------------------|
--------------------------|--------------------------|
--------------------------|--------------------------|
--3--3--3--3--3--3--3--3--|--2--2--2--2--2--2--2--2--|


  E  E  E  E  E  E  E  E  E  E  Q       E  E  E  E  E  E  E  E  E  E  Q
-------------------------------------|-------------------------------------|
-------------------------------------|-------------------------------------|
-----4-----5-----4-----5-------------|-----4-----5-----4-----5-------------|
-----4-----5-----4-----5-----4-------|-----4-----5-----4-----5-----4-------|
-----2-----3-----2-----3-----2--5----|-----2-----3-----2-----3-----2--5----|
--0-----0-----0-----0-----0-----3----|--0-----0-----0-----0-----0-----3----|


  E  E  E  E  E  E  E  E     E  E  E  E  E  E  E  E
--------------------------|--------------------------|
--------------------------|--------------------------|
--------------------------|--------------------------|
--------------------------|--------------------------|
--------------------------|--------------------------|
--3--3--3--3--3--3--3--3--|--2--2--2--2--2--2--2--2--|


  E  E  E  E  E  E  E  E  E  E  Q       E  E  E  E  E  E  E  E  E  E  Q
-------------------------------------|-------------------------------------|
-------------------------------------|-------------------------------------|
-----4-----5-----4-----5-------------|-----4-----5-----4-----5-------------|
-----4-----5-----4-----5-----4-------|-----4-----5-----4-----5-----4-------|
-----2-----3-----2-----3-----2--5----|-----2-----3-----2-----3-----2--5----|
--0-----0-----0-----0-----0-----3----|--0-----0-----0-----0-----0-----3----|


  E  E  E  E  E  E  E  E     E  E  E  E  E  E  E  E
--------------------------|--------------------------|
--------------------------|--------------------------|
--------------------------|--------------------------|
--------------------------|--------------------------|
--------------------------|--------------------------|
--3--3--3--3--3--3--3--3--|--2--2--2--2--2--2--2--2--|


  E  E  E  E  E  E  E  E  E  E  Q       E  E  E  E  E  E  E  E  E  E  Q
-------------------------------------|-------------------------------------|
-------------------------------------|-------------------------------------|
-----4-----5-----4-----5-------------|-----4-----5-----4-----5-------------|
-----4-----5-----4-----5-----4-------|-----4-----5-----4-----5-----4-------|
-----2-----3-----2-----3-----2--5----|-----2-----3-----2-----3-----2--5----|
--0-----0-----0-----0-----0-----3----|--0-----0-----0-----0-----0-----3----|


  H        E  E  E  E     H        E  E  E  E     H        E  E  E  E
-----------------------|-----------------------|-----------------------|
-----------------------|-----------------------|-----------------------|
--4--------------------|--5--------------------|--6--------------------|
--4--------------------|--5--------------------|--6--------------------|
--2--------------------|--3--------------------|--4--------------------|
-----------0--0--0--0--|-----------0--0--0--0--|-----------0--0--0--0--|


  H        E  E  E  E     H        E  E  E  E     H        E  E  E  E
-----------------------|-----------------------|-----------------------|
-----------------------|-----------------------|-----------------------|
--7--------------------|--4--------------------|--5--------------------|
--7--------------------|--4--------------------|--5--------------------|
--5--------------------|--2--------------------|--3--------------------|
-----------0--0--0--0--|-----------0--0--0--0--|-----------0--0--0--0--|


  H        E  E  E  E     H        E  E  E  E     H        E  E  E  E
-----------------------|-----------------------|-----------------------|
-----------------------|-----------------------|-----------------------|
--6--------------------|--7--------------------|--4--------------------|
--6--------------------|--7--------------------|--4--------------------|
--4--------------------|--5--------------------|--2--------------------|
-----------0--0--0--0--|-----------0--0--0--0--|-----------0--0--0--0--|


  H        E  E  E  E     H        E  E  E  E     H        E  E  E  E
-----------------------|-----------------------|-----------------------|
-----------------------|-----------------------|-----------------------|
--5--------------------|--6--------------------|--7--------------------|
--5--------------------|--6--------------------|--7--------------------|
--3--------------------|--4--------------------|--5--------------------|
-----------0--0--0--0--|-----------0--0--0--0--|-----------0--0--0--0--|


  H        E  E  E  E     H        E  E  E  E     H        E  E  E  E
-----------------------|-----------------------|-----------------------|
-----------------------|-----------------------|-----------------------|
--4--------------------|--5--------------------|--6--------------------|
--4--------------------|--5--------------------|--6--------------------|
--2--------------------|--3--------------------|--4--------------------|
-----------0--0--0--0--|-----------0--0--0--0--|-----------0--0--0--0--|


                          PM   PM   PM PM PM PM    PM   PM   PM PM PM PM
  H        E  E  E  E     Q    Q    E  E  E  E     Q    Q    E  E  E  E
-----------------------|------------------------|------------------------|
-----------------------|------------------------|------------------------|
--7--------------------|------------------------|------------------------|
--7--------------------|--2----2----2--2--2--2--|--2----2----2--2--2--2--|
--5--------------------|--2----2----2--2--2--2--|--2----2----2--2--2--2--|
-----------0--0--0--0--|--0----0----0--0--0--0--|--0----0----0--0--0--0--|


  PM   PM   PM PM PM PM    PM   PM               PM   PM   PM PM PM PM
  Q    Q    E  E  E  E     Q    Q    H           Q    Q    E  E  E  E
------------------------|---------------------|------------------------|
------------------------|---------------------|------------------------|
------------------------|------------5--------|------------------------|
--2----2----2--2--2--2--|--2----2----5--------|--2----2----2--2--2--2--|
--2----2----2--2--2--2--|--2----2----3--------|--2----2----2--2--2--2--|
--0----0----0--0--0--0--|--0----0-------------|--0----0----0--0--0--0--|


  PM   PM   PM PM PM PM    PM   PM   PM PM PM PM    PM   PM
  Q    Q    E  E  E  E     Q    Q    E  E  E  E     Q    Q    H
------------------------|------------------------|---------------------|
------------------------|------------------------|---------------------|
------------------------|------------------------|------------5--------|
--2----2----2--2--2--2--|--2----2----2--2--2--2--|--2----2----5--------|
--2----2----2--2--2--2--|--2----2----2--2--2--2--|--2----2----3--------|
--0----0----0--0--0--0--|--0----0----0--0--0--0--|--0----0-------------|


  PM   PM   PM PM PM PM    PM   PM   PM PM PM PM    PM   PM   PM PM PM PM
  Q    Q    E  E  E  E     Q    Q    E  E  E  E     Q    Q    E  E  E  E
------------------------|------------------------|------------------------|
------------------------|------------------------|------------------------|
------------------------|------------------------|------------------------|
--2----2----2--2--2--2--|--2----2----2--2--2--2--|--2----2----2--2--2--2--|
--2----2----2--2--2--2--|--2----2----2--2--2--2--|--2----2----2--2--2--2--|
--0----0----0--0--0--0--|--0----0----0--0--0--0--|--0----0----0--0--0--0--|


  PM   PM               PM   PM   PM PM PM PM    PM   PM   PM PM PM PM
  Q    Q    H           Q    Q    E  E  E  E     Q    Q    E  E  E  E
---------------------|------------------------|------------------------|
---------------------|------------------------|------------------------|
------------5--------|------------------------|------------------------|
--2----2----5--------|--2----2----2--2--2--2--|--2----2----2--2--2--2--|
--2----2----3--------|--2----2----2--2--2--2--|--2----2----2--2--2--2--|
--0----0-------------|--0----0----0--0--0--0--|--0----0----0--0--0--0--|


  PM   PM   PM PM PM PM    PM   PM
  Q    Q    E  E  E  E     Q    Q    H
------------------------|---------------------|-----------|
------------------------|---------------------|-----------|
------------------------|------------5--------|-----------|
--2----2----2--2--2--2--|--2----2----5--------|-----------|
--2----2----2--2--2--2--|--2----2----3--------|-----------|
--0----0----0--0--0--0--|--0----0-------------|-----------|


  PM   PM   PM PM PM PM    PM   PM   PM PM PM PM    PM   PM   PM PM PM PM
  Q    Q    E  E  E  E     Q    Q    E  E  E  E     Q    Q    E  E  E  E
------------------------|------------------------|------------------------|
------------------------|------------------------|------------------------|
------------------------|------------------------|------------------------|
--2----2----2--2--2--2--|--2----2----2--2--2--2--|--2----2----2--2--2--2--|
--2----2----2--2--2--2--|--2----2----2--2--2--2--|--2----2----2--2--2--2--|
--0----0----0--0--0--0--|--0----0----0--0--0--0--|--0----0----0--0--0--0--|


  PM   PM               PM   PM   PM PM PM PM    PM   PM   PM PM PM PM
  Q    Q    H           Q    Q    E  E  E  E     Q    Q    E  E  E  E
---------------------|------------------------|------------------------|
---------------------|------------------------|------------------------|
------------5--------|------------------------|------------------------|
--2----2----5--------|--2----2----2--2--2--2--|--2----2----2--2--2--2--|
--2----2----3--------|--2----2----2--2--2--2--|--2----2----2--2--2--2--|
--0----0-------------|--0----0----0--0--0--0--|--0----0----0--0--0--0--|


  PM   PM   PM PM PM PM    PM   PM
  Q    Q    E  E  E  E     Q    Q    H           H        E  E  E  E
------------------------|---------------------|-----------------------|
------------------------|---------------------|-----------------------|
------------------------|------------5--------|--4--------------------|
--2----2----2--2--2--2--|--2----2----5--------|--4--------------------|
--2----2----2--2--2--2--|--2----2----3--------|--2--------------------|
--0----0----0--0--0--0--|--0----0-------------|-----------0--0--0--0--|


  H        E  E  E  E     H        E  E  E  E     H        E  E  E  E
-----------------------|-----------------------|-----------------------|
-----------------------|-----------------------|-----------------------|
--5--------------------|--6--------------------|--7--------------------|
--5--------------------|--6--------------------|--7--------------------|
--3--------------------|--4--------------------|--5--------------------|
-----------0--0--0--0--|-----------0--0--0--0--|-----------0--0--0--0--|


  H        E  E  E  E     H        E  E  E  E     H        E  E  E  E
-----------------------|-----------------------|-----------------------|
-----------------------|-----------------------|-----------------------|
--4--------------------|--5--------------------|--6--------------------|
--4--------------------|--5--------------------|--6--------------------|
--2--------------------|--3--------------------|--4--------------------|
-----------0--0--0--0--|-----------0--0--0--0--|-----------0--0--0--0--|


  H        E  E  E  E     E  E  E  E  E  E  E  E     E  E  E  E  E  E  E  E
-----------------------|--------------------------|--------------------------|
-----------------------|--------------------------|--------------------------|
--7--------------------|--4-----------5-----------|--6-----------7-----------|
--7--------------------|--4-----------5-----------|--6-----------7-----------|
--5--------------------|--2-----------3-----------|--4-----------5-----------|
-----------0--0--0--0--|-----0--0--0-----0--0--0--|-----0--0--0-----0--0--0--|


  E  E  E  E  E  E  E  E     E  E  E  E  H           E  E  E  E  E  E  E  E
--------------------------|-----------------------|--------------------------|
--------------------------|-----------------------|--------------------------|
--4-----------5-----------|--6-----------7--------|--4-----------5-----------|
--4-----------5-----------|--6-----------7--------|--4-----------5-----------|
--2-----------3-----------|--4-----------5--------|--2-----------3-----------|
-----0--0--0-----0--0--0--|-----0--0--0-----------|-----0--0--0-----0--0--0--|


  E  E  E  E  E  E  E  E     E  E  E  E  E  E  E  E     E  E  E  E  H
--------------------------|--------------------------|-----------------------|
--------------------------|--------------------------|-----------------------|
--6-----------7-----------|--4-----------5-----------|--6-----------7--------|
--6-----------7-----------|--4-----------5-----------|--6-----------7--------|
--4-----------5-----------|--2-----------3-----------|--4-----------5--------|
-----0--0--0-----0--0--0--|-----0--0--0-----0--0--0--|-----0--0--0-----------|


  E  E  E  E  E  E  E  E     E  E  E  E  E  E  E  E
--------------------------|--------------------------|
--------------------------|--------------------------|
--4-----------5-----------|--6-----------7-----------|
--4-----------5-----------|--6-----------7-----------|
--2-----------3-----------|--4-----------5-----------|
-----0--0--0-----0--0--0--|-----0--0--0-----0--0--0--|


  E  E  E  E  E  E  E  E     E  E  E  E  H           E  E  E  E  E  E  E  E
--------------------------|-----------------------|--------------------------|
--------------------------|-----------------------|--------------------------|
--4-----------5-----------|--6-----------7--------|--4-----------5-----------|
--4-----------5-----------|--6-----------7--------|--4-----------5-----------|
--2-----------3-----------|--4-----------5--------|--2-----------3-----------|
-----0--0--0-----0--0--0--|-----0--0--0-----------|-----0--0--0-----0--0--0--|


  E  E  E  E  E  E  E  E     E  E  E  E  E  E  E  E     E  E  E  E  H
--------------------------|--------------------------|-----------------------|
--------------------------|--------------------------|-----------------------|
--6-----------7-----------|--4-----------5-----------|--6-----------7--------|
--6-----------7-----------|--4-----------5-----------|--6-----------7--------|
--4-----------5-----------|--2-----------3-----------|--4-----------5--------|
-----0--0--0-----0--0--0--|-----0--0--0-----0--0--0--|-----0--0--0-----------|


  E  E  E  E  E  E  E  E     E  E  E  E  E  E  E  E
--------------------------|--------------------------|
--------------------------|--------------------------|
--------------------------|--------------------------|
--------------------------|--------------------------|
--------------------------|--------------------------|
--3--3--3--3--3--3--3--3--|--2--2--2--2--2--2--2--2--|


  E  E  E  E  E  E  E  S S S E  S    E  E  E  E  E  E  E  E
----------------------------------|--------------------------|
----------------------------------|--------------------------|
----------------------------------|--------------------------|
----------------------------------|--------------------------|
-----2-----2-----2--3--2-3-2------|--------------------------|
--0-----0-----0--------------3--L-|--3--3--3--3--3--3--3--3--|


  E  E  E  E  E  E  E  E     E  E  E  E  E  E  E  E  S S S S
--------------------------|----------------------------------|
--------------------------|----------------------------------|
--------------------------|----------------------------------|
--------------------------|----------------------------------|
--------------------------|-----2-----2-----2--3--2--3-2-----|
--2--2--2--2--2--2--2--2--|--0-----0-----0---------------3-L-|


  E  E  E  E  E  E  E  E     E  E  E  E  E  E  E  E
--------------------------|--------------------------|
--------------------------|--------------------------|
--------------------------|--------------------------|
--------------------------|--------------------------|
--------------------------|--------------------------|
--3--3--3--3--3--3--3--3--|--2--2--2--2--2--2--2--2--|


  E  E  E  E  E  E  E  E  E  E  Q       E  E  E  E  E  E  E  E  E  E  Q
-------------------------------------|-------------------------------------|
-------------------------------------|-------------------------------------|
-----4-----5-----4-----5-------------|-----4-----5-----4-----5-------------|
-----4-----5-----4-----5-----4-------|-----4-----5-----4-----5-----4-------|
-----2-----3-----2-----3-----2--5----|-----2-----3-----2-----3-----2--5----|
--0-----0-----0-----0-----0-----3----|--0-----0-----0-----0-----0-----3----|


  E  E  E  E  E  E  E  E     E  E  E  E  E  E  E  E
--------------------------|--------------------------|
--------------------------|--------------------------|
--------------------------|--------------------------|
--------------------------|--------------------------|
--------------------------|--------------------------|
--3--3--3--3--3--3--3--3--|--2--2--2--2--2--2--2--2--|


  E  E  E  E  E  E  E  E  E  E  Q       E  E  E  E  E  E  E  E  E  E  Q
-------------------------------------|-------------------------------------|
-------------------------------------|-------------------------------------|
-----4-----5-----4-----5-------------|-----4-----5-----4-----5-------------|
-----4-----5-----4-----5-----4-------|-----4-----5-----4-----5-----4-------|
-----2-----3-----2-----3-----2--5----|-----2-----3-----2-----3-----2--5----|
--0-----0-----0-----0-----0-----3----|--0-----0-----0-----0-----0-----3----|


  E  E  E  E  E  E  E  E     E  E  E  E  E  E  E  E
--------------------------|--------------------------|
--------------------------|--------------------------|
--------------------------|--------------------------|
--------------------------|--------------------------|
--------------------------|--------------------------|
--3--3--3--3--3--3--3--3--|--2--2--2--2--2--2--2--2--|


  E  E  E  E  E  E  E  E     E  E  E  E  E  E  E  E
--------------------------|--------------------------|
--------------------------|--------------------------|
--4-----------5-----------|--6-----------7-----------|
--4-----------5-----------|--6-----------7-----------|
--2-----------3-----------|--4-----------5-----------|
-----0--0--0-----0--0--0--|-----0--0--0-----0--0--0--|


  E  E  E  E  E  E  E  E     E  E  E  E  H           E  E  E  E  E  E  E  E
--------------------------|-----------------------|--------------------------|
--------------------------|-----------------------|--------------------------|
--4-----------5-----------|--6-----------7--------|--4-----------5-----------|
--4-----------5-----------|--6-----------7--------|--4-----------5-----------|
--2-----------3-----------|--4-----------5--------|--2-----------3-----------|
-----0--0--0-----0--0--0--|-----0--0--0-----------|-----0--0--0-----0--0--0--|


  E  E  E  E  E  E  E  E     E  E  E  E  E  E  E  E     E  E  E  E  H
--------------------------|--------------------------|-----------------------|
--------------------------|--------------------------|-----------------------|
--6-----------7-----------|--4-----------5-----------|--6-----------7--------|
--6-----------7-----------|--4-----------5-----------|--6-----------7--------|
--4-----------5-----------|--2-----------3-----------|--4-----------5--------|
-----0--0--0-----0--0--0--|-----0--0--0-----0--0--0--|-----0--0--0-----------|


  E  E  E  E  E  E  E  E     E  E  E  E  E  E  E  E
--------------------------|--------------------------|
--------------------------|--------------------------|
--4-----------5-----------|--6-----------7-----------|
--4-----------5-----------|--6-----------7-----------|
--2-----------3-----------|--4-----------5-----------|
-----0--0--0-----0--0--0--|-----0--0--0-----0--0--0--|


  E  E  E  E  E  E  E  E     E  E  E  E  H           E  E  E  E  E  E  E  E
--------------------------|-----------------------|--------------------------|
--------------------------|-----------------------|--------------------------|
--4-----------5-----------|--6-----------7--------|--4-----------5-----------|
--4-----------5-----------|--6-----------7--------|--4-----------5-----------|
--2-----------3-----------|--4-----------5--------|--2-----------3-----------|
-----0--0--0-----0--0--0--|-----0--0--0-----------|-----0--0--0-----0--0--0--|


  E  E  E  E  E  E  E  E     E  E  E  E  E  E  E  E     E  E  E  E  H
--------------------------|--------------------------|-----------------------|
--------------------------|--------------------------|-----------------------|
--6-----------7-----------|--4-----------5-----------|--6-----------7--------|
--6-----------7-----------|--4-----------5-----------|--6-----------7--------|
--4-----------5-----------|--2-----------3-----------|--4-----------5--------|
-----0--0--0-----0--0--0--|-----0--0--0-----0--0--0--|-----0--0--0-----------|


  E  E  E  E  E  E  E  E     E  E  E  E  E  E  E  E
--------------------------|--------------------------|
--------------------------|--------------------------|
--4-----------5-----------|--6-----------7-----------|
--4-----------5-----------|--6-----------7-----------|
--2-----------3-----------|--4-----------5-----------|
-----0--0--0-----0--0--0--|-----0--0--0-----0--0--0--|


  E  E  E  E  E  E  E  E     E  E  E  E  H
--------------------------|-----------------------||
--------------------------|-----------------------||
--4-----------5-----------|--6-----------7--------||
--4-----------5-----------|--6-----------7--------||
--2-----------3-----------|--4-----------5--------||
-----0--0--0-----0--0--0--|-----0--0--0-----------||




Duration Legend
---------------
W - whole
H - half
Q - quarter
E - 8th
S - 16th
T - 32nd
X - 64th
. - note dotted
|-n-|  - n-tuplets


Tablature Legend
----------------
L - tied note
x - dead note
g - grace note
(n) - ghost note
> - accentuded note
NH - natural harmonic
AH - artificial harmonic
TH - tapped harmonic
SH - semi harmonic
PH - pitch harmonic
h - hammer on
p - pull off
b - bend
br - bendRelease
pb - preBend
pbr - preBendRelease
brb - bendReleaseBend
\n/ - tremolo bar dip
\n - tremolo bar dive
-/n - tremolo bar Release up
/n\ - tremolo bar inverted dip
/n - tremolo bar return
-\n - tremolo bar Release down
S - shift slide
s - legato slide
/ -  slide into from below or out of upwards
\ -  slide into from above or out of downwards
~ - vibrato
W - wide vibrato
tr - trill
TP - tremolo picking
T - tapping
S - slap
P - pop
< - fade in
^ - brush up
v - brush down

  Visit MetalTabs.com for more metal tablature

bottom separator

Contact Us | Privacy Policy | Disclaimer
Copyright © 2001-2014 MetalTabs.com. All Rights Reserved.