top separator

Home

Forum

What's New

Submit a Tab

FAQ

Links

Contact Us

Link to Us

MuSpy.com

MetalTabs.com logo

Bands

0-9

A

B

C

D

E

F

G

H

I

J

K

L

M

N

O

P

Q

R

S

T

U

V

W

X

Y

Z

Search

What

Where
 

Septic Flesh - "Succubus Priestess" Guitar Tab

Plain Text Version
More Septic Flesh Tabs

Hits: 1913
Rated: 5.00 out of 5 (1 vote)
Updated: 2006-11-27 04:57:40

 

By:

biaiothanatos

sendpm.gif

email.gif

Important note
This tab is available online because we obtained explicit permission from Septic Flesh or their label.


#----------------------------------PLEASE NOTE---------------------------------#
#This file is the author's own work and represents their interpretation of the #
#song. You may only use this file for private study, scholarship, or research. #
#Unless specified otherwise, this is NOT an official tab from the band members.#
#------------------------------------------------------------------------------#

  Visit MetalTabs.com for more metal tablature
  
SUCCUBUS PRIESTESS
                           As recorded by Septic Flesh
                         (From the 1996 Album ESOPTRON (Holy Records))

Words and Music by Septic Flesh
Arranged by Septic Flesh
Transcribed by Chris Day
Email: biaiothanatos@gmail.com
Feel free to email me with corrections, comments or anything else.  Hopefully
this tab is helpful to someone.  I also made
a power tab version, so if you want more precise timing / details, look
that version up or email me and I will hook you up.

.  - palm mute           /  - slide up to
  - slide down to       ~  - vibrato
h  - hammer on           b  - Bend
p  - pull off            Suffixes for bend
t  - tap                 f  - full bend    h - half bend
ph - pinched harmonic    q  - quarter bend t - tap bend
*  - see comment         ^  - Hold bend    r release bend
x  - Stuccatto           ~  - vibrato bend
,  - slight palm mute    () - ghost note, sustained note
"  - tremolo note        <> - Trill

Standard Tuning (E A D G B E)

  Q=160
 4/4
  Gtr I
|-------|--------|---------|----------|---------|
|-------|--------|---------|----------|---------|
|-------|--------|---------|----------|---------|
|-----9-|------9-|----9----|----10----|---------|
|-7-----|-9------|-10---10-|-12----12-|-9----10-|
|-------|--------|---------|----------|---------|
|
| Gtr II
|-------|--------|---------|----------|---------|
|-------|--------|---------|----------|---------|
|-------|--------|---------|----------|---------|
|-------|--------|---------|----------|---------|
|---7---|--------|-10------|--9-------|---------|
|-------|---10---|---------|----------|---10----|


|------|-------|---------|--------|--------------|
|------|-------|---------|--------|--------------|
|------|-------|---------|--------|--------------|
|----9-|-----9-|----9----|----10--|--------------|
|-7----|--9----|-10---10-|-12-----|--9--9b10r====|
|------|-------|---------|--------|--------------|
|
|------|-------|---------|--------|--------------|
|------|-------|---------|--------|--------------|
|------|-------|---------|--------|--------------|
|------|-------|---------|----<4>-|-<5>----------|
|-7----|-------|-10------|--9-----|----------<5>-|
|------|-10----|---------|--------|--------------|


|------------|-----------|----------|------|
|------------|-----------|----------|------|
|------------|-----------|----------|------|
|------------|-----------|----------|------|
|------------|-2------0--|-2--------|-2----|
|--0---------|-2---------|-3--------|-2----|
|
|------------|-----------|----------|------|
|------------|-----------|----------|------|
|------------|-----------|----------|------|
|------------|-----------|----------|------|
|------------|-----------|----------|------|
|-<3>--------|-----------|----------|------|


||-------|-------|-----|----||
||o------|-------|-----|---o||
||-------|-------|-----|----||
||-------|-------|-----|----||
||o------|-2---0-|-2---|-2-o||
||--0----|-2-----|-3---|-2--||


|---------------|------------|------------------|----------------------------|
|---------------|------------|------------------|----------------------------|
|--------11--9--|-(9)--------|-------11--11b12--|-(11)---(11)pb12r===========|
|-10------------|------------|-10---------------|----------------------------|
|---------------|------------|------------------|----------------------------|
|---------------|------------|------------------|----------------------------|
|
|---------------|------------|------------------|----------------------------|
|---------------|------------|------------------|----------------------------|
|---------------|------------|------------------|----------------------------|
|------4-----2--|-(2)--------|--------4---4b5---|--(4)------------(4)pb5r====|
|--3------------|------------|--3---------------|----------------------------|
|---------------|------------|------------------|----------------------------|


||-----------|-----------|----------|-------||
||o----------|-----------|----------|------o||
||-----------|-----------|----------|-------||
||-----------|-----------|----------|-------||
||o----------|-2------0--|-2--------|-2----o||
||--0--------|-2---------|-3--------|-2-----||


|--------|-------|-----------|--------|
|--------|-------|-----------|--------|
|--------|-------|-----------|--------|
|-2------|-2--2--|-2--2--2---|--------|
|-0------|-------|---------2-|-2-5----|
|--------|-------|-----------|--------|
|
|--------|-------|-----------|--------|
|--------|-------|-----------|--------|
|--------|-------|-----------|--------|
|-2------|-2-----|-----------|--------|
|-0------|----5--|-5--3--3---|--------|
|--------|-------|---------3-|-3------|



  PM-----------------------------------------|
|-------------|-------------|---------------------|
|-------------|-------------|---------------------|
|-------------|-------------|---------------------|
|-3--3--3--3--|-3--3--3--3--|-3--3--3--3--3--3----|
|-3--3--3--3--|-2--2--2--2--|-3--3--3--3--2--2----|
|-1--1--1--1--|-1--1--1--1--|-1--1--1--1--1--1----|


                                         1.           2.

                        ~
|-||------------------|------|----------|-----------||-----|--------|
|-||o-----------------|------|----------|----------o||-----|--------|
|-||------------------|------|----------|-----------||-----|--------|
|-||--12-10-9-10-9----|-9----|-12-14-15-|-14----12--||-14--|-12-11--|
|-||o--------------12-|---10-|----------|----15----o||-----|--------|
|-||------------------|------|----------|-----------||-----|--------|
|
|     Gtr II
|-||------------------|------|----------|-----------||-----|--------|
|-||o-----------------|------|----------|----------o||-----|--------|
|-||------------------|------|----------|-----------||-----|--------|
|-||------------------|------|----------|-----------||-----|--------|
|-||o--5--------------|-5----|--5--7--8-|--7-----5-o||-----|--------|
|-||------------------|------|----------|-----8-----||--8--|--5--5--|



         ~            PM   PM           ~           PM
||---------------|---------------|--------------|---------------------||
||o--------------|---------------|--------------|--------------------o||
||-------9-------|---------------|------9-------|---------------------||
||--0--7-----7-0-|-3--x-5--x-5-7-|----7-----7---|---------------------||
||o--------------|---------------|--------------|-8-x-7b8r(7)-5------o||
||---------------|---------------|-6----------6-|---------------8-----||
|


                                          1.

           ~~             PM    PM                ~~
||------------------|--------------------|-----------------|
||o-----------------|--------------------|-----------------|
||---------9--------|--------------------|--------9--------|
||---0--7-------7-0-|--3--x--5--x---5--7-|-----7-------7---|
||o-----------------|--------------------|-----------------|
||------------------|--------------------|--6------------6-|
|
||------------------|--------------------|-----------------|
||o-----------------|--------------------|-----------------|
||--10----12---14---|--------------------|-10----12---14---|
||------------------|-10----12----(12)---|-----------------|
||o-----------------|--------------------|-----------------|
||------------------|--------------------|-----------------|


                       2.
      PM
|--------------------||-----------|---------|
|-------------------o||-----------|---------|
|--------------------||-----------|---------|
|--------------------||----9------|---8-----|
|--8--x-7b8r(7)-5---o||-----------|---------|
|-----------------8--||-----------|---------|
|
|--------------------||-----------|---------|
|-------------------o||-----------|---------|
|--------------------||-----------|---------|
|-10-----------------||-12--------|-(12)----|
|-------------------o||-----------|---------|
|--------------------||-----------|---------|



||--------------------------|--------------------------|
||o-------------------------|--------------------------|
||--------------------------|--------------------------|
||--11-10-10-10-10-11-11-11-|-11--13-13-13-13-15-15-15-|
||o-------------------------|-----15-15-15-15-15-15-15-|
||--------------------------|--------------------------|
|
||--------------------------|--------------------------|
||o-------------------------|--------------------------|
||--------------------------|--------------------------|
||--------------------------|--------------------------|
||o--3----------------------|-(3)----------------------|
||---1----------------------|-(1)----------------------|


|-------------------------|----------------------------||
|-------------------------|---------------------------o||
|-------------------------|----------------------------||
|-11-10-10-10-10-11-11-11-|-11--13-13-13-13-15-15-15---||
|-------------------------|-----15-15-15-15-15-15-15--o||
|-------------------------|----------------------------||
|
|-------------------------|----------------------------||
|-------------------------|---------------------------o||
|-------------------------|----------------------------||
|-------------------------|----------------------------||
|--7----------------------|-(7)-----------------------o||
|--5----------------------|-(5)------------------------||


||--------------------------|-------------------------|
||o-------------------------|-------------------------|
||--------------------------|-------------------------|
||--11-10-10-10-10-11-11-11-|-11-13-13-13-13-15-15-15-|
||o-------------------------|----15-15-15-15-15-15-15-|
||--------------------------|-------------------------|
|
|    PM------------------------------------------------
||--------------------------|-------------------------|
||o-------------------------|-------------------------|
||--------------------------|-------------------------|
||--------------------------|-------------------------|
||o--3--3--3--3--3--3--3--3-|--3--3--3--3--3--3--3--3-|
||---1--1--1--1--1--1--1--1-|--1--1--1--1--1--1--1--1-|


|-------------------------|---------------------------||
|-------------------------|--------------------------o||
|-------------------------|---------------------------||
|-11-10-10-10-10-11-11-11-|-11-13-13-13-13-15-15-15---||
|-------------------------|----15-15-15-15-15-15-15--o||
|-------------------------|---------------------------||
|
|------------------------------------------------|
|-------------------------|---------------------------||
|-------------------------|--------------------------o||
|-------------------------|---------------------------||
|-------------------------|---------------------------||
|--7--7--7--7--7--7--7--7-|--7--7--7--7--7--7--7--7--o||
|--5--5--5--5--5--5--5--5-|--5--5--5--5--5--5--5--5---||


|-------------|--------------|-------------|--------------|
|-------------|--------------|-------------|--------------|
|-------------|--------------|-------------|--------------|
|-6p5---5s6---|-6s8---8s10---|-6p5---5s6---|-6s8---8s10---|
|-------------|--------------|-------------|--------------|
|-------------|--------------|-------------|--------------|
|
|-------------|--------------|-------------|--------------|
|-------------|--------------|-------------|--------------|
|-------------|--------------|-------------|--------------|
|-------------|--------------|-------------|--------------|
|-------------|--------------|-------------|--------------|
|-4p3---3s4---|-4s6---6s=8---|-4p3---3s4---|-4s6---6s=8---|


                                                                        3x
||------------------|---------------|-----------------|-----------------||
||o-----------------|---------------|-----------------|----------------o||
||--13-12---12-13---|-(13)----------|-13-12---12-13---|-(13)------------||
||------------------|---------------|-----------------|-----------------||
||o-----------------|---------------|-----------------|----------------o||
||------------------|---------------|-----------------|-----------------||
|
|                                                                       3x
||------------------|---------------|-----------------|-----------------||
||o-----------------|---------------|-----------------|----------------o||
||------------------|---------------|-----------------|-----------------||
||------------------|---------------|-----------------|-----------------||
||o-----------------|---------------|-----------------|----------------o||
||---4p=3----3s=4---|---4s6---6s8---|--4p=3----3s=4---|---4s6---6s8-----||



         ~            PM   PM           ~           PM
||---------------|---------------|--------------|---------------------||
||o--------------|---------------|--------------|--------------------o||
||-------9-------|---------------|------9-------|---------------------||
||--0--7-----7-0-|-3--x-5--x-5-7-|----7-----7---|---------------------||
||o--------------|---------------|--------------|-8-x-7b8r(7)-5------o||
||---------------|---------------|-6----------6-|---------------8-----||
|
||---------------|---------------|--------------|---------------------||
||o--------------|---------------|--------------|--------------------o||
||---------------|---------------|--------------|---------------------||
||---------------|---------------|--------------|---------------------||
||o--------------|---------------|--------------|--------------------o||
||---------------|---------------|--------------|---------------------||



           ~~             PM    PM
||------------------|--------------------|
||o-----------------|--------------------|
||---------9--------|--------------------|
||---0--7-------7-0-|--3--x--5--x---5--7-|
||o-----------------|--------------------|
||------------------|--------------------|
|
||------------------|--------------------|
||o-----------------|--------------------|
||--10----12---14---|--------------------|
||------------------|-10----12----(12)---|
||o-----------------|--------------------|
||------------------|--------------------|


         ~~             PM
|-----------------|---------------------||
|-----------------|--------------------o||
|--------9--------|---------------------||
|-----7-------7---|---------------------||
|-----------------|--8--x-7b8r(7)-5----o||
|--6------------6-|-----------------8---||
|
|-----------------|---------------------||
|-----------------|--------------------o||
|-10----12---14---|---------------------||
|-----------------|-10------------------||
|-----------------|--------------------o||
|-----------------|---------------------||


         ~~           PM    PM                ~~             PM        PM
|----------------|-------------------|-----------------|--------------------|
|----------------|-------------------|-----------------|--------------------|
|----------------|-------------------|-----------------|--------------------|
|-------10-------|-------------------|-------10--------|--------------------|
|--0--7------7-0-|-------------------|--0--7-------7-0-|--------------------|
|----------------|-8--x-10--x-10--12-|-----------------|--8--x-7b8r(7)-5-3--|
|
|----------------|-------------------|-----------------|--------------------|
|----------------|-------------------|-----------------|--------------------|
|----------------|-------------------|-----7-----9-----|--------------------|
|-10-----9-----7-|-7-----9----(9)----|-10--------------|--------------------|
|----------------|-------------------|-----------------|-10-----------------|
|----------------|-------------------|-----------------|--------------------|


         ~~           PM
|----------------|-----------------|
|----------------|-----------------|
|----------------|-----------------|
|-------10-------|-----------------|
|--0--7------7-0-|-----------------|
|----------------|-8--x-10--(10)---|
|
|----------------|-----------------|
|----------------|-----------------|
|----------------|-----------------|
|-10-----9---7---|-7---------------|
|----------------|-----------------|
|----------------|-----------------|



|-------------------------------------|--------------------------------------|
|-13h15p13h15p13h15-11h13p11h13p11h13-|--------------------------------------|
|-------------------------------------|-14h=15p14h15p14h15-14h15p14h15p14h15-|
|-10h12p10h12p10h12--8h10p=8h10p=8h10-|--------------------------------------|
|-------------------------------------|-12h=13p12h13p12h13-12h13p12h13p12h13-|
|-------------------------------------|--------------------------------------|
|
|-------------------------------------|--------------------------------------|
|-------------------------------------|--------------------------------------|
|-------------------------------------|--------------------------------------|
|-------------------------------------|--------------------------------------|
|--6----------------------------------|-(6)----------------------------------|
|-------------------------------------|--------------------------------------|


|-------------------------------------|---------------------------------------|
|-13h15p13h15p13h15-11h13p11h13p11h13-|---------------------------------------|
|-------------------------------------|-14h=15p14h15p14h15-12h14p12h14p12h14--|
|-10h12p10h12p10h12--8h10p=8h10p=8h10-|---------------------------------------|
|-------------------------------------|-12h=13p12h13p12h13-10h12p10h12p10h12--|
|-------------------------------------|---------------------------------------|
|
|-------------------------------------|---------------------------------------|
|-------------------------------------|---------------------------------------|
|-------------------------------------|---------------------------------------|
|-------------------------------------|---------------------------------------|
|--7----------------------------------|-(7)--------------------7--------------|
|-------------------------------------|---------------------------------------|


        PM       PM         PM       PM
|-------------------|--------------------|
|-------------------|--------------------|
|-------------------|--------------------|
|-8--8--8--8--8--8--|-5--5--5--5--5--5---|
|-6--6--6--6--6--6--|-3--3--3--3--3--3---|
|-------------------|--------------------|
|
| PM---------------------------------|
|-------------------|--------------------|
|-------------------|--------------------|
|-------------------|--------------------|
|-8--8--8--8--8--8--|-5--5--5--5--5--5---|
|-6--6--6--6--6--6--|-3--3--3--3--3--3---|
|-------------------|--------------------|


                                         1.,2.,3.     4.

                        ~
                                                    4x
|-||------------------|------|----------|-----------||-----|--------|
|-||o-----------------|------|----------|----------o||-----|--------|
|-||------------------|------|----------|-----------||-----|--------|
|-||--12-10-9-10-9----|-9----|-12-14-15-|-14----12--||-14--|-(14)---|
|-||o--------------12-|---10-|----------|----15----o||-----|--------|
|-||------------------|------|----------|-----------||-----|--------|
|
|     Gtr II
|                                                   4x
|-||------------------|------|----------|-----------||-----|--------|
|-||o-----------------|------|----------|----------o||-----|--------|
|-||------------------|------|----------|-----------||-----|--------|
|-||------------------|------|----------|-----------||-----|--------|
|-||o--5--------------|-5----|--5--7--8-|--7-----5-o||--7--|--(7)---|
|-||------------------|------|----------|-----8-----||-----|--------|

  Visit MetalTabs.com for more metal tablature

bottom separator

Contact Us | Privacy Policy | Disclaimer | Legal Notice
Copyright © 2001-2014 MetalTabs.com. All Rights Reserved.