top separator

Home

Forum

What's New

Submit a Tab

FAQ

Links

Contact Us

Link to Us

MuSpy.com

MetalTabs.com logo

Bands

0-9

A

B

C

D

E

F

G

H

I

J

K

L

M

N

O

P

Q

R

S

T

U

V

W

X

Y

Z

Search

What

Where
 

Soulfly - "First Commandment" Guitar Tab

Plain Text Version
More Soulfly Tabs

Hits: 4595
Rated: 4.50 out of 5 (4 votes)
Updated: 2001-06-19 12:59:53

 

Important note
This tab is available online because we obtained explicit permission from Soulfly or their label.


#----------------------------------PLEASE NOTE---------------------------------#
#This file is the author's own work and represents their interpretation of the #
#song. You may only use this file for private study, scholarship, or research. #
#Unless specified otherwise, this is NOT an official tab from the band members.#
#------------------------------------------------------------------------------#

  Visit MetalTabs.com for more metal tablature
  
	     SONG: First Commandment
	     BAND: Soulfly
	    ALBUM: Soulfly
   TRANSCRIBED BY: Nick Biondo (MetlSlp@aol.com)

	TUNING: tune as follows (B-E-A-D-F-B)


     MAIN RIFF:

    B|----------|
    F|-----9b---|
    D|----------| X4
    A|----------|
    E|-6-6------|
    B|-4-4------|

     FILL 1:

    B|---------------------------|
    F|---------------------------|
    D|---------------------------|
    A|-----6-6-6-6---------------|
    E|-----------------5-5-5-5---|
    B|-4-4---------4-4-----------|

     MAIN RIFF 2:

    B|-----------|
    F|-----------|
    D|-----------|
    A|-----------|
    E|-6-7-9-10--|
    B|-4-5-7-8---|

     FILL 2: (sitar arranged for guitar)

    B|------------------------------------------|
    F|---------------------------9-12-12-12-----|
    D|-9-10-9-10-9-10-9-10--9-10----------------|
    A|------------------------------------------|
    E|------------------------------------------|
    B|------------------------------------------|



  Visit MetalTabs.com for more metal tablature

bottom separator

Contact Us | Privacy Policy | Disclaimer | Legal Notice
Copyright © 2001-2014 MetalTabs.com. All Rights Reserved.