top separator

Home

Forum

What's New

Submit a Tab

FAQ

Links

Contact Us

Link to Us

MuSpy.com

MetalTabs.com logo

Bands

0-9

A

B

C

D

E

F

G

H

I

J

K

L

M

N

O

P

Q

R

S

T

U

V

W

X

Y

Z

Search

What

Where
 

Narsil - "Prelude to Execution" Guitar Tab

Plain Text Version
More Narsil Tabs

Hits: 1458
Rated: 5.00 out of 5 (2 votes)
Updated: 2006-11-15 05:59:39

 

By:

corroded

sendpm.gif

email.gif

Important note
This tab is available online because we obtained explicit permission from Narsil or their label.


#----------------------------------PLEASE NOTE---------------------------------#
#This file is the author's own work and represents their interpretation of the #
#song. You may only use this file for private study, scholarship, or research. #
#Unless specified otherwise, this is NOT an official tab from the band members.#
#------------------------------------------------------------------------------#

  Visit MetalTabs.com for more metal tablature
  
Song: PRELUDE TO EXECUTION
Band: NARSIL
Album: CARCINOGENIC EP
Year: 2006
Label: Demonstealer Records, India

Transcribed by: Kshitish Purohit (carcinogenia@gmail.com)

Tuning: B E A D F# B

Riff A.1 4x

|-------------------------------------|
|-------------------------------------|
|-------------------------------------|
|-2-2------3-3------------------------|
|-2-2------1-1---11-2-2---------------|
|-0-0---00----------0-0---00-41004100-|
        ..       ..       .. ........

Riff B

|--------------------|
|--------------------|
|--------------------|
|-8~-------8~--------|
|-------6~------6-6~-|
|----5~-------5------|

Riff A.1 4x

Riff A.2 4x

|----------------------------------|
|----------------------------------|
|----------------------------------|
|-2-2------3-3---------------------|
|-2-2------1-1-1111-2-2------3--6--|
|-0-0-0000----------0-0-0000-1--4--|
      ....     ....     ....

Riff C 4x

|--------------------------------|
|--------------------------------|
|--------------------------------|
|-------6~-----------5/6-6~------|
|-------5~-----------4/5-5~------|
|-000000---0000000000-------0000-|
  ......   ..........       ....

Riff B

Riff D 2x

|-------------------------------------------------------------|
|-------------------------------------------------------------|
|-------------------------------------------------------------|
|-------------------------------------------------------------|
|-10---------10---------10-------9---------9---------10-------|
|----8-7-0------8-7-0------8-7-0---8-7-0-----8-7-0------8-7-0-|

|--------------------------------------------------------------|
|--------------------------------------------------------------|
|--------------------------------------------------------------|
|--------------------------------------------------------------|
|-10---------10---------10-------9---------9------------8-9-10-|
|----8-7-0------8-7-0------8-7-0---7-6-0-----7-6-0-0000-6-7--8-|
                                                   ....

Riff E

|----------------------------------------------------------------------|
|----------------------------------------------------------------------|
|----------------------------------------------------------------------|
|----------------------------------------------------------------------|
|-7-10---7-10---7-10---7-10---7-10---6-9---6-9---6-9---5-8---4-7---3-6-|
|------0------0------0------0------0-----0-----0-----0-----0-----0-----|
       .      .      .      .      .     .     .     .     .     .

|---------------------------------------------------------------------|
|---------------------------------------------------------------------|
|---------------------------------------------------------------------|
|---------------------------------------------------------------------|
|--7-10---7-10---7-10---7-10---7-10---6-9---6-9---6-9---5-8---4-7---3-|
|0------0------0------0------0------0-----0-----0-----0-----0-----0---|
 .      .      .      .      .      .     .     .     .     .     .

Riff D
Riff E

Riff F.1 2x

|-------------------------------|
|-------------------------------|
|-------------------------------|
|-------------------------------|
|---3-4---3-4---3-4---3-4---4-5-|
|-0-1-2-0-1-2-0-1-2-0-1-2-0-2-3-|
  .     .     .     .     .

|-------------------------------------|
|-------------------------------------|
|-------------------------------------|
|-------------------------------------|
|---3-4---3-4---3-4---4-5---4-5---4-5-|
|-0-1-2-0-1-2-0-1-2-0-2-3-0-2-3-0-2-3-|
  .     .     .     .     .     .

Riff F.2 3x

|---------------------------------|
|---------------------------------|
|---------------------------------|
|---------------------------------|
|---3-4---3-4---3-4---3-4---4-5---|
|-0-1-2-0-1-2-0-1-2-0-1-2-0-2-3-0-|
  .     .     .     .     . . . .

Riff F.3

|----------------------------------|
|----------------------------------|
|----------------------------------|
|----------------------------------|
|----------------------------------|
|-22222222333333337777777788888888-|

Riff G

|-------(gtr 1)-------------------------|
|-------(not to)------------------------|
|--------(play)-------------------------|
|--------(this)-------------------------|
|---4-5-----5-6-----4-5-----5-6-----4-5-|
|-0-2-3---0-3-4---0-2-3---0-3-4---0-2-3-|
  . .     . .     . .     . .     . .

END

  Visit MetalTabs.com for more metal tablature

bottom separator

Contact Us | Privacy Policy | Disclaimer | Legal Notice
Copyright © 2001-2014 MetalTabs.com. All Rights Reserved.