top separator

Home

Forum

What's New

Submit a Tab

FAQ

Links

Contact Us

Link to Us

MetalTabs.com logo

Bands

0-9

A

B

C

D

E

F

G

H

I

J

K

L

M

N

O

P

Q

R

S

T

U

V

W

X

Y

Z

Search

What

Where
 

Narsil - "Derelict Deranged" Guitar Tab

Plain Text Version
More Narsil Tabs

Hits: 1413
Rated: 5.00 out of 5 (1 vote)
Updated: 2006-11-15 05:56:01

 

By:

corroded

sendpm.gif

email.gif

Important note
This tab is available online because we obtained explicit permission from Narsil or their label.


#----------------------------------PLEASE NOTE---------------------------------#
#This file is the author's own work and represents their interpretation of the #
#song. You may only use this file for private study, scholarship, or research. #
#Unless specified otherwise, this is NOT an official tab from the band members.#
#------------------------------------------------------------------------------#

  Visit MetalTabs.com for more metal tablature
  
Song: DERELICT DERANGED
Band: NARSIL
Album: CARCINOGENIC EP
Year: 2006
Label: Demonstealer Records, India

Transcribed by: Kshitish Purohit (carcinogenia@gmail.com)

Tuning: B E A D F# B

Riff A 8x

|-------(Guitar 2 plays)-|
|-------(half the bar--)-|
|-------(the first time)-|
|------------------|
|---4-5------5-6---|
|-0-2-3----0-3-4---|
  . .      . .

Riff B 2x

|----------------------------------|
|----------------------------------|
|----------------------------------|
|-----44443333----44443333----3333-|
|-2222--------2222--------2222-----|
|----------------------------------|

Riff A 6x

Riff C.1 2x

|------------------------------------------------------------------|
|------------------------------------------------------------------|
|------------------------------------------------------------------|
|------------------------------------------------------------------|
|-44443333--------3333333344444444---------------------------------|
|---------11110000----------------44444444444444441111111111111111-|

Riff C.2 1x (Guitar 2 over Riff C.1 second time)

|------------------------------------------------------------------|
|------------------------------------------------------------------|
|------------------------------------------------------------------|
|-66665555--------5555555566666666---------------------------------|
|------------------------------------------------------------------|
|---------11110000----------------44444444444444441111111111111111-|

Riff D.1 4x

|---------------------|
|---------------------|
|---------------------|
|---------------------|
|---9/8---7/6---5/4---|
|-0-7/6-0-5/4-0-3/2-0-|
  .     .     .

Riff D.2 2x (Guitar 2 over Riff D.1 first two times)

|---------------------|
|---------------------|
|---------------------|
|---------------------|
|---9-8---7-6---5-4---|
|-0-7-6-0-5-4-0-3-2-0-|
  . . . . . . . . . .

Riff C (same order as above) 2x
Riff D (same order as above) 4x

Riff E

|---------------------|
|---------------------|
|---------------------|
|-2-------------------|
|-2-------------------|
|-0-------------------|

Riff F.1 4x

|------------------------------------------------------------------|
|------------------------------------------------------------------|
|------------------------------------------------------------------|
|-9-9-9----9-9-9-9-9---9---9-9-10-10-10---10-10-10-12-12---12-10-9-|
|-7-7-7----7-7-7-7-7---7---7-7--7--7--7----7--7--7--7--7----7--7-7-|
|------------------------------------------------------------------|

Solo (over Riff F.1 last two times)

|------------------------------------|
|------------------------------------|
|------------------------------------|
|-------------------7~----7-9-9~-----|
|-/7~------7-10-9-7------------------|
|------------------------------------|

|-/12~--12----12-15--~--15brb~--15-14-15br-14-------|
|----------12-------13------------------------13~---|
|---------------------------------------------------|
|---------------------------------------------------|
|---------------------------------------------------|


19-19-19--19-19-19-19-19--19--19-19-20-20-20--20-20-/22-20-19-20-19h20p19------
17-17-17--17-17-17-17-17--17--17-17-17-17-17--17-17-----------------------19---
-----------------------------------------------------------------------------19
-------------------------------------------------------------------------------
-------------------------------------------------------------------------------
-------------------------------------------------------------------------------

|--------------------------------------dive bomb w/harmonic------------|
|--------------------------------------0\\\\\\\\////////---------------|
|----------------------------------------------------------------------|
|-17~~~--16-17-16~~~---------------------------------------------------|
|--------------------16-17-16~~~-14-16---------------------------------|
|----------------------------------------------------------------------|

Riff G 4x

|------------------------|---------|-----------|
|------------------------|-(1,2,3)-|--(4)------|
|------------------------|---------|-----------|
|-------3-4---------3-4--|---------|-----------|
|-------2-3---------2-3--|---------|--5---4--3-|
|-0-1-0-------0-1-0------|-0-1-0-1-|--3---2--1-|
  . . .       . . .        . . . .    .   .  .

Riff F.2 2x (Guitar 2 over Riff F.1)

|-------------------------------------------------------|
|-------------------------------------------------------|
|-------------------------------------------------------|
|-------------------------------------------------------|
|-2-2-2---2-2-2-2-2---2---2-2-3-3-3---3-3-3-5-5---5-3-2-|
|-0-0-0---0-0-0-0-0---0---0-0-0-0-0---0-0-0-0-0---0-0-0-|

Riff A 4x
Riff C 2x
Riff D 4x
Riff F 6x
Riff E
END

  Visit MetalTabs.com for more metal tablature

bottom separator

Contact Us | Privacy Policy | Disclaimer | Legal Notice
Copyright © 2001-2014 MetalTabs.com. All Rights Reserved.