top separator

Home

Forum

What's New

Submit a Tab

FAQ

Links

Contact Us

Link to Us

MetalTabs.com logo

Bands

0-9

A

B

C

D

E

F

G

H

I

J

K

L

M

N

O

P

Q

R

S

T

U

V

W

X

Y

Z

Search

What

Where
 

Narsil - "Carcinogenia" Guitar Tab

Plain Text Version
More Narsil Tabs

Hits: 1784
Rated: 5.00 out of 5 (1 vote)
Updated: 2006-11-15 05:53:14

 

By:

corroded

sendpm.gif

email.gif

Important note
This tab is available online because we obtained explicit permission from Narsil or their label.


#----------------------------------PLEASE NOTE---------------------------------#
#This file is the author's own work and represents their interpretation of the #
#song. You may only use this file for private study, scholarship, or research. #
#Unless specified otherwise, this is NOT an official tab from the band members.#
#------------------------------------------------------------------------------#

  Visit MetalTabs.com for more metal tablature
  
Song: PRELUDE TO EXECUTION
Band: CARCINOGENIA
Album: CARCINOGENIC EP
Year: 2006
Label: Demonstealer Records, India

Transcribed by: Kshitish Purohit (carcinogenia@gmail.com)

Tuning: B E A D F# B

Riff A

|-----------------------------------------------------------------------|
|-------------------------------------------------------(guitar 2 pick)-|
|-------------------------------------------------------(scrape here)---|
|-----------------------------------------------------------------------|
|-----------------2--2--2--2--2--2----------2--2--2--2------------------|
|-0-4-1-0-4-1-0-1-0--0--0--0--0--0--0-4-1-0-0--0--0--0--0-4-1-0-4-1-0-1-|
  . . . . . . . .    .  .  .  .  .  . . . .    .  .  .  . . . . . . . .

Riff B 4x

|----------------------------------------------------------------|
|----------------------------------------------------------------|
|----------------------------------------------------------------|
|-2--------------------------------------------------------------|
|-2--------------------------------------------------------------|
|-0--000011114444000011114444111100000000111144440-4-1-0-4-1-0-1-|
     ............................................. . . . . . . .

Riff C 4x

|---------------|----------------|
|----(7/8 3x)---|----(9/8 1x)----|
|---------------|----------------|
|---------------|----------------|
|-------------3-|-------3--6--3--|
|-0-1-4-0-1-4---|-0-1-4-1--4--1--|
  . . . . . .     . . .

Riff D.1 4x

|--------------------------------------------------------(stop on)|
|--------------------------------------------------------(last)---|
|--------------------------------------------------------(measure)|
|-2-------------------------------5-------------------------------|
|-2---------------2-3-3-5-5-6-6-5-5-----------5-5-5-6-6-8-8-9-9-8-|
|-0---------------0-1-1-3-3-4-4-3-3-----------3-3-3-4-4-6-6-7-7-6-|

Riff D.2 2x (Guitar 2 over Riff D.1 last two times)

|--------------------------------------------------------(stop on)|
|--------------------------------------------------------(last)---|
|--------------------------------------------------------(measure)|
|-----------------------------------------------------------------|
|-----------------------------------------------------------------|
|-5-4-0-5-3-0-5-2-0-4-1-0-1-0-1-0-5-4-0-5-3-0-5-2-0-4-1-0-1-0-1-0-|
  . . . . . . . . . . . . . . . . . . . . . . . . . . . . . . . .

Riff D.2 4x Both Guitars (1x open, 2x with mutes, 1x open)

Riff E 2x

|-----------------------------------------------------------------|
|-----------------------------------------------------------------|
|-------------------------5---------------------------------------|
|---3---4-----------3---4---4---4---3---4-------------------------|
|-2---3-----------2---3-------3---2---3---------------------------|
|---------0-0-0-0-------------------------0-0-0-0-0-0-1~---0-0-1~-|
          . . . .                         . . . . . .      . .

Riff C 4x

Riff F 4x

|----------------------------------------------------------------|
|----------------------------------------------------------------|
|----------------------------------------------------------------|
|---------------------------6---5-----7-----8---7-----7----------|
|-------------------------7---6---6-5-----7---6---6-5-----7-6-7--|
|-0-0-0-0-0-0-0-0-0-0-0-0---------------6---------------6-5-4-5--|
  . . . . . . . . . . . .               .

Riff G.1 2x (Guitar 1)

|------------------------------------------------------------------|
|------------------------------------------------------------------|
|------------------------------------------------------------------|
|-------77----7788----------------------------4444------------4444-|
|-----55--6666----55554444----------------3333----3333----3333-----|
|-3333--------------------6666555533332222------------2222---------|

Riff G.2 2x (Guitar 2)

|------------------------------------------------------------------|
|------------------------------------------------------------------|
|---------------------------------------------6666------------5555-|
|-------77----778877776666----------------5555----5555----4444-----|
|-----55--6666------------8888777755554444------------3333---------|
|-3333-------------------------------------------------------------|

Riff E 2x
Riff F 2x
Riff G 2x

Riff H

|-------------------------------------------|
|-------------------------------------------|
|-------------------------------------------|
|-----------------------------2-------------|
|-------------3-------------3-2-------------|
|-0-1-4-0-1-4---0-1-4-0-1-4---0-------------|
  . . . . . .   . . . . . .

Riff I.1 2x (song measure changes to 6/4 here onwards)

|--------(4x)|------------------------(4x)|
|------------|----------------------------|
|------------|----------------------------|
|---6---6~---|----------------------------|
|-5---5------|---6---7---8---9---10----11-|
|------------|-5---6---7---8---9----10----|
  .   .        .   .   .   .   .    .

Riff I.2 1x (Guitar 2 over Riff I.1 second time)

|--------(4x)|----------------------(4x)|
|------------|--------------------------|
|------------|--------------------------|
|---6---6~---|---5---6---7---8---9---10-|
|-5---5------|-4---5---6---7---8---9----|
|------------|--------------------------|
  .   .        .   .   .   .   .   .

Riff J.1 4x

|--------(4x)|---------(4x)|
|------------|-------------|
|------------|-------------|
|------------|-------------|
|---6---6~---|---11---11~--|
|-3---3------|-8----8------|
  .            .

Riff J.2 2x (Guitar 2 over Riff J.1 last two times)

|--------(4x)|---------(4x)|
|------------|-------------|
|------------|-------------|
|---5---5~---|---10---10~--|
|------------|-------------|
|-3---3------|-8----8------|
  .            .

Riff K

|------------------------------------------|
|------------------------------------------|
|------------------------------------------|
|---6---6~-----6---6~-----6---6~-----6---6-|
|-5---5------5---5------5---5------5---5-5-|
|------------------------------------------|
  .          .          .          .

END

  Visit MetalTabs.com for more metal tablature

bottom separator

Contact Us | Privacy Policy | Disclaimer | Legal Notice
Copyright © 2001-2014 MetalTabs.com. All Rights Reserved.