top separator

Home

Forum

What's New

Submit a Tab

FAQ

Links

Contact Us

Link to Us

MetalTabs.com logo

Bands

0-9

A

B

C

D

E

F

G

H

I

J

K

L

M

N

O

P

Q

R

S

T

U

V

W

X

Y

Z

Search

What

Where
 

Pantheist - "Sloth" Bass Tab

Plain Text Version
More Pantheist Tabs

Hits: 2132
Rated: 5.00 out of 5 (4 votes)
Updated: 2006-11-07 06:30:48

 

By:

Paddy

sendpm.gif

email.gif

Important note
This tab is available online because we obtained explicit permission from Pantheist or their label.


#----------------------------------PLEASE NOTE---------------------------------#
#This file is the author's own work and represents their interpretation of the #
#song. You may only use this file for private study, scholarship, or research. #
#Unless specified otherwise, this is NOT an official tab from the band members.#
#------------------------------------------------------------------------------#

  Visit MetalTabs.com for more metal tablature
  
================================================================================
                               P A N T H E I S T

                                       -

                                   S L O T H
================================================================================


			            AMARTIA
		            (c) 2005 FireDoom Music
                           http://www.pantheist.co.uk/


                              Tune Down 3 & 1/2 Steps
			            A D G C

			         Tempo = 80 BPM
		              Time Signature = 4/4



                          -----------------------------
		                 Transcribed by

		                 PADDY MCMULLAN
                           stinkypoohpants@yahoo.co.uk

                                   Version 1.0
                             -----------------------

		             Tablature Symbols Used:


 h         -  Hammer-on
 p         -  Pull-off
 \         -  Slide Down to/Down From
 /         -  Slide Up to/Up From
 ( / )     -  Legato Slide
 ( )       -  Ghost Note/Tied Note/Implied Note



================================================================================
Riff 1: Play 3 times
================================================================================


||-------------------|-------------------|-------------------|
||-------------------|-------------------|-------------------|
||--2----------------|--2----------------|-------------------|
||-------------------|-------------------|--2----------------|


|-------------------| |
|-------------------|*|
|-------------------|*|
|--2----------------| |



================================================================================
Riff 2: Play twice
================================================================================


  1                    2                    3
||--------------------|--------------------|--------------------|
||--------------------|--------------------|--------------------|
||--------------------|--------------------|--------------------|
||--0------------0----|--3------------3----|--2------------2----|

 4                  5                   6                   7
|------------------|-------------------|-------------------|-------------------|
|------------------|-------------------|-------------------|-------------------|
|------------------|--2----------------|--2----------------|-------------------|
|--2---------------|-------------------|-------------------|--2----------------|

 8                  9                   10                  11
|------------------|-------------------|-------------------|-------------------|
|------------------|-------------------|-------------------|-------------------|
|------------------|--2----------------|--2----------------|-------------------|
|--2---------------|-------------------|-------------------|--2----------------|

 12                 13                  14                  15
|------------------|-------------------|-------------------|-------------------|
|------------------|-------------------|-------------------|-------------------|
|------------------|--2----------------|--2----------------|-------------------|
|--2---------------|-------------------|-------------------|--2----------------|

 16
|-------------------||
|-------------------||
|-------------------||
|--2----------------||



================================================================================
Riff 3: Guitars 1 and 2 (Play once)
================================================================================


  1                   2                   3
||-------------------|-------------------|-------------------|
||-------------------|-------------------|-------------------|
||-------------------|-------------------|-------------------|
||--0----------------|--3----------------|--2----------------|

 4                  5                  6                  7
|------------------|------------------|------------------|------------------|
|------------------|------------------|------------------|------------------|
|------------------|------------------|------------------|------------------|
|--(2)-------------|--0---------------|--0---------------|--2---------------|

 8                  9                  10                 11
|------------------|------------------|------------------|------------------|
|------------------|------------------|------------------|------------------|
|------------------|------------------|------------------|------------------|
|--(2)-------------|--0---------------|--3---------------|--2---------------|

 12
|-------------------||
|-------------------||
|-------------------||
|--(2)--------------||



================================================================================
Play Riff 2 twice
================================================================================

================================================================================
Play Riff 2 once
================================================================================

================================================================================
Rest for 4 bars
================================================================================

================================================================================
Riff 4: Play twice
================================================================================


   1               2                 3                 4
| |---------------|-----------------|-----------------|-----------------|
|4|---------------|-----------------|-----------------|-----------------|
|/|---------------|-----------------|-----------------|-----------------|
|4|--2------------|--(2)------------|--(2)------------|--(2)------------|

 5                 6                  7                  8
|-----------------|------------------|------------------|------------------|
|-----------------|------------------|------------------|------------------|
|--5--------------|--(5)-------------|--(5)-------------|--(5)-------------|
|-----------------|------------------|------------------|------------------|

 10                11                 12                 13
|-----------------|------------------|------------------|------------------|
|-----------------|------------------|------------------|------------------|
|--2--------------|--(2)-------------|--(2)-------------|--(2)-------------|
|-----------------|------------------|------------------|------------------|

 14                  15                   16
|-------------------|------------------| |--------------||
|-------------------|------------------|9|--------------||
|--4----------------|--(4)-------------|/|--(4)---------||
|-------------------|------------------|8|--------------||



================================================================================
Riff 5: Play once
================================================================================


  1                        2                          3
||------------------------|-------------------------|--------------------------|
||------------------------|-------------------------|--------------------------|
||-5--5--5--5--5--5--5--5-|--5--5--5--5--5--5--5--5-|--7--7--7--7--7--7--7--7--|
||------------------------|-------------------------|--------------------------|

 4                        5                          6
|------------------------|--------------------------|--------------------------|
|------------------------|--------------------------|--------------------------|
|-7--7--7--7--7--7--7--7-|--0--0--0--0--0--0--0--0--|--0--0--0--0--0--0--0--0--|
|------------------------|--------------------------|--------------------------|

 7                         8                         9
|-------------------------|-------------------------|--------------------------|
|-------------------------|-------------------------|--------------------------|
|-2--2--2--2--5--5--5--5--|-4--4--4--4--4--4--5--5--|--4--4--4--4--4--4--4--4--|
|-------------------------|-------------------------|--------------------------|

 10                        11                        12
|-------------------------|-------------------------|--------------------------|
|-------------------------|-------------------------|--------------------------|
|-4--4--4--4--4--4--4--4--|-5--5--5--5--5--5--5--5--|--5--5--5--5--5--5--5--5--|
|-------------------------|-------------------------|--------------------------|

 13                        14                        15
|-------------------------|-------------------------|--------------------------|
|-------------------------|-------------------------|--------------------------|
|-------------------------|-------------------------|--4--4--4--4--5--5--5--5--|
|-7--7--7--7--7--7--7--7--|-7--7--7--7--7--7--7--7--|--------------------------|

 16
|-------------------------||
|-------------------------||
|-4--4--4--4--4--4--4--4--||
|-------------------------||




================================================================================
Play Riff 4 twice, playing and holding the 1st bar once more
================================================================================

================================================================================
End
================================================================================


Tab summary:        Riff 1 X 1
                    Riff 2 X 2
                    Riff 3 X 1
                    Riff 2 X 1
                    Riff 4 X 2
                    Riff 5 X 1
                    Riff 4 X 2

                    END

  Visit MetalTabs.com for more metal tablature

bottom separator

Contact Us | Privacy Policy | Disclaimer | Legal Notice
Copyright © 2001-2014 MetalTabs.com. All Rights Reserved.