top separator

Home

Forum

What's New

Submit a Tab

FAQ

Links

Contact Us

Link to Us

MetalTabs.com logo

Bands

0-9

A

B

C

D

E

F

G

H

I

J

K

L

M

N

O

P

Q

R

S

T

U

V

W

X

Y

Z

Search

What

Where
 

Excel - "Message In The Bottle" Guitar Tab

Plain Text Version
More Excel Tabs

Hits: 3685
Updated: 2006-12-04 22:32:04

 

By:

Arsenal_420

sendpm.gif

email.gif

Important note
We did our best to reach Excel and ask for their permission to publish this tab. Unfortunately they did not respond to our requests or we could not find a way to contact them. This tab is available online until Excel tells us to take it down.


#----------------------------------PLEASE NOTE---------------------------------#
#This file is the author's own work and represents their interpretation of the #
#song. You may only use this file for private study, scholarship, or research. #
#Unless specified otherwise, this is NOT an official tab from the band members.#
#------------------------------------------------------------------------------#

  Visit MetalTabs.com for more metal tablature
  
Band:  Excel
Album: The Joke's On You
Song:  Message In A Bottle

Copyright (c)  Rotten Records 1989
Version 1.0 - 10/19/06

Transcribed By: Gary
Email:          hyperslob@yahoo.com


.  - palm mute           /  - slide up to
  - slide down to       ~  - vibrato
h  - hammer on           b  - Bend
p  - pull off            Suffixes for bend
t  - tap                 f  - full bend    h - half bend
ph - pinched harmonic    q  - quarter bend t - tap bend
*  - see comment         ^  - Hold bend    r release bend
x  - Stuccatto           ~  - vibrato bend
,  - slight palm mute    () - ghost note, sustained note
"  - tremolo note        <> - Trill

Tune All Strings to E flat (1/2 step down)

Main Riff  (Distortion)
|-------------------------------------------------------------------|
|-------------------------------------------------------------------|
|-----8------2------4-----------------------------------------------|
|---6------2------4--------6/7--------------------------------------|
|-4------0------2--------4------------------------------------------|
|----------------------2--------------------------------------------|

Riff A  "Ill send an SOS to the world..."
|-------------------------------------------------------------------|
|-------------------------------------------------------------------|
|-------------------------------------------------------------------|
|-2-2-2-2-2-2-2-2-7-7-7-9-9-9-9-9-----------------------------------|
|-0-0-0-0-0-0-0-0-5-5-5-7-7-7-7-7-----------------------------------|
|-------------------------------------------------------------------|
  pm. . . . . . . . . . . . . . .

Part 2  "i hope that someone gets my..."
|-------------------------------------------------------------------|
|-------------------------------------------------------------------|
|--------------7-7-7-7-7-7-7-7--------------------------------------|
|-4------------7-7-7-7-7-7-7-7--------------------------------------|
|-4------------5-5-5-5-5-5-5-5--------------------------------------|
|-2------------5-5-5-5-5-5-5-5--------------------------------------|
               . . . . . . . .

Part 3 "message in a bottle..."
|-------------------------------------------------------------------|
|-----------------------------------------------------2-------------|
|-6-------2-------6-6-6-6--2--------6--------2--------2-------------|
|-6-------2-------6-6-6-6--2--------6--------2--------4-------------|
|-4-------0-------4-4-4-4--0--------4--------0--------4-------------|
|-----------------------------------------------------2-------------|

and thats pretty much it, just repeat that stuff over again and... yeah...

END

  Visit MetalTabs.com for more metal tablature

bottom separator

Contact Us | Privacy Policy | Disclaimer | Legal Notice
Copyright © 2001-2014 MetalTabs.com. All Rights Reserved.