top separator

Home

Forum

What's New

Submit a Tab

FAQ

Links

Contact Us

Link to Us

MetalTabs.com logo

Bands

0-9

A

B

C

D

E

F

G

H

I

J

K

L

M

N

O

P

Q

R

S

T

U

V

W

X

Y

Z

Search

What

Where
 

Lutomysl - "Nesuschim Otblesk" Guitar Tab

Plain Text Version
More Lutomysl Tabs

Hits: 2355
Updated: 2006-11-07 04:12:15

 

By:

Mortifera

sendpm.gif

email.gif

Important note
We did our best to reach Lutomysl and ask for their permission to publish this tab. Unfortunately they did not respond to our requests or we could not find a way to contact them. This tab is available online until Lutomysl tells us to take it down.


#----------------------------------PLEASE NOTE---------------------------------#
#This file is the author's own work and represents their interpretation of the #
#song. You may only use this file for private study, scholarship, or research. #
#Unless specified otherwise, this is NOT an official tab from the band members.#
#------------------------------------------------------------------------------#

  Visit MetalTabs.com for more metal tablature
  
Band:  Lutomysl
Album: Decadence
Song:  nesuschim otblesk

Copyright (c)  Propaganda 2005


Transcribed By: Mortifera
Email:          Blood.and.iron@hotmail.com


.  - palm mute           /  - slide up to
\  - slide down to       ~  - vibrato
h  - hammer on           b  - Bend
p  - pull off            Suffixes for bend
t  - tap                 f  - full bend    h - half bend
ph - pinched harmonic    q  - quarter bend t - tap bend
*  - see comment         ^  - Hold bend    r release bend
x  - Stuccatto           ~  - vibrato bend
,  - slight palm mute    () - ghost note, sustained note
"  - tremolo note        <> - Trill

Tuning E A D G B E
I didn't even bother attemping to time it. Just listen to the song
And you'll figure it out. It's not hard.

Riff 1 (Tremolo whole thing)
|-------------------------------------------------------------------|
|-------------------------------------------------------------------|
|-------------------------------------------------------------------|
|-9--8--8-11--------------------------------------------------------|x8
|-11-11-7-7---------------------------------------------------------|
|-------------------------------------------------------------------|


Riff 2 (Pick lightly)
|-------------------------------------------------------------------|
|-------------------------------------------------------------------|
|-------------------------------------------------------------------|
|-9----9-----9----8------11--9----9----9----11-----11---------------|
|---11----11---11----7-9-------11---11---11----7-8------------------|
|-------------------------------------------------------------------|

Riff 3 (Tremolo whole thing)
|-------------------------------------------------------------------|
|-------------------------------------------------------------------|
|---------9-8-------------9-8-------------9-8-----------------------|
|--9-8--------9-8-----9-8-----9-8-----9-8-----6---9-8---------------|
|-----6-7---------6-7-------------6-7-----------7-------------------|
|-------------------------------------------------------------------|

Riff 4 (Tremolo Whole thing)
|-------------------------------------------------------------------|
|-------------------------------------------------------------------|
|-------------------------------------------------------------------|
|-6-5-10-8-10-8-10-8-3-10-8-5---------------------------------------|
|-8-8-8--8-8--8-8--8-4-8--6-6---------------------------------------|
|-------------------------------------------------------------------|

Solo (Tremolo Whole thing):
|-------------------------------------------------------------------|
|-------------------------------------------------------------------|
|-------------------------------------------------------------------|
|--------------9-8--------------9-8---------------------------------| x2
|-9-8-9-11-9-8-----9-8-9-11-9-8-------------------------------------|
|-------------------------------------------------------------------|
*On let last note ring on last time playing*
END

  Visit MetalTabs.com for more metal tablature

bottom separator

Contact Us | Privacy Policy | Disclaimer | Legal Notice
Copyright © 2001-2014 MetalTabs.com. All Rights Reserved.