top separator

Home

Forum

What's New

Submit a Tab

FAQ

Links

Contact Us

Link to Us

MuSpy.com

MetalTabs.com logo

Bands

0-9

A

B

C

D

E

F

G

H

I

J

K

L

M

N

O

P

Q

R

S

T

U

V

W

X

Y

Z

Search

What

Where
 

Hollenthon - "Lords of Bedlam" Guitar Tab

Plain Text Version
More Hollenthon Tabs

Hits: 2401
Updated: 2006-11-07 04:08:18

 

By:

Daniil

sendpm.gif

email.gif

Important note
This tab is available online because we obtained explicit permission from Hollenthon or their label.


#----------------------------------PLEASE NOTE---------------------------------#
#This file is the author's own work and represents their interpretation of the #
#song. You may only use this file for private study, scholarship, or research. #
#Unless specified otherwise, this is NOT an official tab from the band members.#
#------------------------------------------------------------------------------#

  Visit MetalTabs.com for more metal tablature
  
HOLLENTHON-Lords Of Bedlam
With Vilest Of Worms To Dwell-2001
Copyright Napalm Records
Transcribed by Daniil Laletin
e-mail: dlaletin@mail.ru
version 1.0 September 2006

All corrections are welcome.

 " - tremolo
 / - slide down
 \ - slide up
 . - palm mute
 ~ - long sound
 x - rest
 p - pull off
 h - hammer on
 tr - trill
 () - ghost note, sustained note
 * - artificial harmonics
 b - bend

 Tuning from low to high: D G C F A D

================================

 Intro              x2
|---------------------|
|---2----2----2----2--|
|---2----2----2----2--|
|---4----4----4----4--|orchestra
|------0---------0----|
|-2---------2---------|
|
|---------------------|
|---------------------|
|---------------------|
|---4--------(4)------|gtr 1&2
|-4-4--------(4)------|
|-2-2--------(2)------|
  .
|-----------------------------------------|
|---2----2----2----2----2----2----2----2--|
|---2----2----2----2----2----2----2----2--|
|---4----4----4----4----4----4----4----4--|orchestra
|------0---------0---------0---------0----|
|-2---------2---------2---------2---------|
|
|-----------------------------------------|
|-----------------------------------------|
|-----------------------------------------|
|---4---------4---------4---------4----4--|gtr 1&2
|-4-4-------4-4-------4-4-------4-4--4-4--|
|-2-2-------2-2-------2-2-------2-2--2-2--|
  .         .         .         .    .


 Riff 1
|----9----9----9----12---9----9----9----12-|
|-710--710--710--710--710--710--610--710---|
|----6----6----6----9----6----6----6----9--|
|-4-7--4-7--4-7--4-7--4-7--4-7--4-7--4-7---|orchestra
|------------------------------------------|
|------------------------------------------|
|
|------------------------------------------|
|-----------7--5----------------7----------|
|------6--6------6---------6--6----6-------|
|-4--7------4--2----7-4--7------4----------|orchestra
|------4--4------4---------4--4----4-------|
|-2--5--------------5-2--5-----------------|
|
|------------------------------------------|
|------------------------------------------|
|------------------------------------------|
|------------------------------------------|gtr 1&2
|------------------------------------------|
|-2-------2--4--5-----2--------2----4------|

|---------9-12--9--------------9-12----|
|------9----------9---------9----------|
|-6--9----6--9--6----9-6--9----6--9----|
|------6----------6---------6----------|orchestra
|-4--7---------------7-4--7------------|
|--------------------------------------|
|
|--------------------------------------|
|--------------------------------------|
|--------------------------------------|
|--------------------------------------|gtr 1&2
|-4----------4\----\-------------------|
|-------------------------4-----4------|

|----9----9----9----12---9----9----9----12-|
|-710--710--710--710--710--710--610--710---|
|----6----6----6----9----6----6----6----9--|
|-4-7--4-7--4-7--4-7--4-7--4-7--4-7--4-7---|orchestra
|------------------------------------------|
|------------------------------------------|
|
|------------------------------------------|
|-----------7--5----------------7----------|
|------6--6------6---------6--6----6-------|
|-4--7------4--2----7-4--7------4----------|orchestra
|------4--4------4---------4--4----4-------|
|-2--5--------------5-2--5-----------------|
|
|------------------------------------------|
|------------------------------------------|
|------------------------------------------|
|------------------------------------------|gtr 1&2
|------------------------------------------|
|-2---------4---------5---------/9-9-9-----|

|---------9-12--9--------------9-12----|
|------9----------9---------9----------|
|-6--9----6--9-------9-6--9----6--9----|
|------6----------6---------6----------|orchestra
|-4--7---------------7-4--7------------|
|--------------------------------------|
|
|--------------------------------------|
|--------------------------------------|
|--------------------------------------|
|---------------------------6-6-6-6----|gtr 1&2
|-/7-7-7------7---6---4----------------|
|--------------------------------------|



 Riff 2a
|----------------------------------------------------------|
|----------------------------------------------------------|
|-6-5-6-8-9-----5-6------------6-5-6-8-9-5-6---------------|
|-------------------6-7------------------------------------|orch
|----------------------------------------------------------|
|----------------------------------------------------------|
|
|----------------------------------------------------------|
|-------------------------*-----------------------------*--|
|-------------------------5-----------------------------5--|
|----------------------------------------------------------|gtr 1&2
|-------------------------3-----------------------4-5-4-3--|
|-2-2-----5-5-----2-2---2------2-2-----5-5-----2-----------|
  .       .       .     .      .       .


 Riff 2b
|----------------------------------------------------------|
|----------------------------------------------------------|
|----------------------------------------------------------|
|----------------------------------------------------------|orch
|-4-3-4-6-7-----3-4------------4-3-4-6-7-3-4---------------|
|-------------------4-5------------------------------------|
|
|----------------------------------------------------------|
|----------------------------------------------------------|
|----------------------------------------------------------|
|----------------------------------------------------------|gtr 1&2
|-------------------------3-----------------------4-5-4-3--|
|-2-2-----5-5-----2-2---2------2-2-----5-5-----2-----------|
  .       .       .     .      .       .



 Riff 3
|--------------------------------------------|
|--------------------------------------------|
|-9-------9--------9-------------------------|
|--------------------------------------------|orchestra
|-7-------7--------7-------------------------|
|-0-------0--------0-------------------------|
|
|--------------------------------------------|
|--------------------------------------------|
|--------------------------------------------|
|--------------------------------------------|gtr 1&2
|-2-----0-1------2-3----2-3-5-6--2-3-5--6-5--|
|-0-0-0------0-0------0----------------------|
    . .      . .      .


 Riff 2c
|-9-8-91112-----8-9------------9-8-91112-8-9---------------|
|-------------------910------------------------------------|
|----------------------------------------------------------|
|----------------------------------------------------------|gtr 3
|----------------------------------------------------------|
|----------------------------------------------------------|
|
|----------------------------------------------------------|
|----------------------------------------------------------|
|-6-5-6-8-9-----5-6------------6-5-6-8-9-5-6---------------|
|-------------------6-7------------------------------------|orchestra
|----------------------------------------------------------|
|----------------------------------------------------------|
|
|----------------------------------------------------------|
|-------------------------*-----------------------------*--|
|-------------------------5-----------------------------5--|
|----------------------------------------------------------|gtr 1&2
|-------------------------3-----------------------4-5-4-3--|
|-2-2-----5-5-----2-2---2------2-2-----5-5-----2-----------|
  .       .       .     .      .       .


 Riff 4
|--------3-7--3----3-7---------------|
|-8---5---------5----8-----8---------|
|-9-6----------------9-----9---------|
|-9---2--5-9--5-2--5-9-----9---------|orchestra
|---4--------------------------------|
|------------------------------------|
|
|------------------------------------|
|------------------------------------|
|------------------------------------|
|--------------------\-\-\-\-\-------|gtr 1
|-5------------------\-\-\-\-\-------|
|-3----------------------------------|
| .
|------------------------------------|
|------------------------------------|
|------------------------------------|
|------------------------------------|gtr 2
|-5------------------5-----5----(5)--|
|-3------------------3-----3----(3)--|
  .                  .
|--------3-7--3----3-7--3----3-7--3--|
|-8---5---------5---------5----------|
|-9-6--------------------------------|
|-9---2--5-9--5-2--5-9--5-2--5-9--5--|orchestra
|---4--------------------------------|
|------------------------------------|
|
|------------------------------------|
|------------------------------------|
|----------------------777666777666--|
|----------------------555555555555--|gtr 1
|-5--------------------............--|
|-3----------------------------------|
| .
|------------------------------------|
|------------------------------------|
|------------------------------------|
|------------------------------------|gtr 2
|-5----------------------------------|
|-3--------------------333333333333--|
  .                    ............



 Riff 5
|----------9---------------------9------------|
|--------8------------8--------8------------8-|
|------6---6--------6--------6---6--------6---|
|--------5--------5---5--------5--------5---5-|orchestra
|------4------------4--------4------------4---|
|-----------------3---------------------3-----|
|
|---------------------------------------------|
|---------------------------------------------|
|---------------------------------------------|
|----------------------------------5tr6-------|gtr 1&2
|-4tr5------------------4tr5------------------|
|------------3tr4-----------------------------|

           x4
|------------|
|----8-------|
|------------|
|----5-------|orchestra
|------------|
|----3-------|
|
|------------|
|------------|
|------------|
|---6--------|gtr 1&2
|---4--------|
|-4----2-3-4-|
  .    . . .

|----------10---------------------10------------|
|--------9-------------9--------9-------------9-|
|------7---7---------7--------7---7---------7---|
|--------6---------6---6--------6---------6---6-|orchestra
|------5-------------5--------5-------------5---|
|------------------4----------------------4-----|
|
|-----------------------------------------------|
|-----------------------------------------------|
|-----------------------------------------------|
|------------------------------------6tr7-------|gtr 1&2
|-5tr6-------------------5tr6-------------------|
|-------------4tr5------------------------------|

           x4
|------------|
|-----9------|
|------------|
|-----6------|orchestra
|------------|
|-----4------|
|
|------------|
|------------|
|------------|
|---6--------|gtr 1&2
|---4--------|
|-4----2-3-4-|
  .    . . .


 Riff 6
|----11-10----------------------11-10----11---11---11--|
|-----------7-6------------7-6-----------11---11---11--|
|----------------7-4--7-6--------------8----8----8-----|
|------------------------------------------------------|orchestra
|--------------------------------------6----6----6-----|
|------------------------------------------------------|
|
|------------------------------------------------------|
|------------------------------------------------------|
|-4"----------7"--------6"---------5"------------------|
|------------------------------------------------------|gtr 1
|------------------------------------------------------|
|------------------------------------------------------|
|
|------------------------------------------------------|
|------------------------------------------------------|
|------------------------------------------------------|
|------------------------------------------------------|gtr 2
|-2"----------5"--------0"-----------------------------|
|----------------------------------4"------------------|

|----11-10----------------------11-10----11---11---11--|
|-----------7-6------------7-6-----------11---11---11--|
|----------------7-4--7-6--------------8----8----8-----|
|------------------------------------------------------|orchestra
|--------------------------------------6----6----6-----|
|------------------------------------------------------|
|
|------------------------------------------------------|
|------------------------------------------------------|
|-4"-------6"-7"---4"----------------------------------|
|-----------------------7"---------6"------------------|gtr 1
|------------------------------------------------------|
|------------------------------------------------------|
|
|------------------------------------------------------|
|------------------------------------------------------|
|------------------------------------------------------|
|------------------------------------------------------|gtr 2
|-2"-------4"-5"--------0"-----------------------------|
|----------------------------------4"------------------|

 Play Riff 6 for the two times. At second time, at the end,
 don't play orchestra notes and don't use tremolo on guitar,
 play this fill

 Fill 2 - with Intro chords
                               x2
|------|-------------------------|
|------|-------------------------|
|-6~---|-------------------------|
|------|-4~----3~----2~----3~----|gtr 3
|------|-------------------------|
|------|-------------------------|
|
|------|-------------------------|
|------|-7~----6~----9~----6~----|
|------|-------------------------|
|------|-------------------------|gtr 4
|-4~---|-------------------------|
|------|-------------------------|

  Visit MetalTabs.com for more metal tablature

bottom separator

Contact Us | Privacy Policy | Disclaimer | Legal Notice
Copyright © 2001-2014 MetalTabs.com. All Rights Reserved.