top separator

Home

Forum

What's New

Submit a Tab

FAQ

Links

Contact Us

Link to Us

MuSpy.com

MetalTabs.com logo

Bands

0-9

A

B

C

D

E

F

G

H

I

J

K

L

M

N

O

P

Q

R

S

T

U

V

W

X

Y

Z

Search

What

Where
 

Dyscrasia - "Atrocious Appetite for Cauterized Cooter" Guitar Tab

Plain Text Version
More Dyscrasia Tabs

Hits: 1686
Rated: 1.00 out of 5 (1 vote)
Updated: 2006-12-17 21:24:22

 

By:

aXeBastard

sendpm.gif

email.gif

Important note
This tab is available online because we obtained explicit permission from Dyscrasia or their label.


#----------------------------------PLEASE NOTE---------------------------------#
#This file is the author's own work and represents their interpretation of the #
#song. You may only use this file for private study, scholarship, or research. #
#Unless specified otherwise, this is NOT an official tab from the band members.#
#------------------------------------------------------------------------------#

  Visit MetalTabs.com for more metal tablature
  
Band:  Dyscrasia
Album: Septical Stomach Pumped Remnants
Song:  Atrocious Appetite For Cauterized Cooter

Copyright (c)  United Gutteral 2004
Version 1.0 - 16/10/06

Transcribed By: aXeBastard
Email:          Smashed_Face@msn.com


.  - palm mute           /  - slide up to
  - slide down to       ~  - vibrato
h  - hammer on           b  - Bend
p  - pull off            Suffixes for bend
t  - tap                 f  - full bend    h - half bend
ph - pinched harmonic    q  - quarter bend t - tap bend
*  - see comment         ^  - Hold bend    r release bend
x  - Stuccatto           ~  - vibrato bend
,  - slight palm mute    () - ghost note, sustained note
"  - tremolo note        <> - Trill

Tuning : Standard B

|----------------------------|Riff 1
|----------------------------|
|----------------------------|
|------------------------3ph-|
|-5-5-5--4-4-4--3-4-3--2-----|
|-3-3-3--2-2-2--1-2-1--0-----|
  . . .  . . .  . . .  .


|-----------------------------------|Riff 2
|-----------------------------------|
|-----------------------------------|
|-----------------------------------|
|-------------------------6666------|
|-33333-22222-555-666-555------5555-|


|-----------------------------------------|Riff 2b
|-----------------------------------------|
|-----------------------------------------|
|-----------------------------------------|
|-------------------------6666------33333-|
|-33333-22222-555-666-555------5555-------|


|-------|Fill Riff
|-------|
|-------|
|-------|
|-5---4-|
|-3---2-|


|-------------------------------------|Riff 3
|-------------------------------------|
|-------------------------------------|
|-------------------------------------|
|-5---4--------------6666-------33333-|
|-3---2--555-666-555------55555-------|


|-------------------------------|Riff 3b
|-------------------------------|
|-------------------------------|
|-------------------------------|
|-5---4--------------6666-------|
|-3---2--555-666-555------55555-|


|-----------------------------|Riff 4
|-----------------------------|
|-----------------------------|
|-6---------------------------|
|-4-----------------------8ph-|
|-4--4-0--3-4-8-5-333-333-----|
     . .  . . . . ... ...


|---------------------------------|Riff 5
|---------------------------------|
|---------------------------------|
|---------------------------------|
|---------------------------5-4-2-|
|-4444-2222-111111-222-1111-3-2-0-|
                            . . .

|---------------------------------|Riff 5b
|---------------------------------|
|---------------------------------|
|---------------------------------|
|---------------------------5-4-2-|
|-5555-3333-111111-222-1111-3-2-0-|
                            . . .

|-----------------------------------------------------|Riff 6
|-----------------------------------------------------|
|-----------------------------------------------------|
|-----------------------------------------------------|
|-111111-444-111-444-000000---------------------------|
|---------------------------111111-444-111-444-000000-|

END

  Visit MetalTabs.com for more metal tablature

bottom separator

Contact Us | Privacy Policy | Disclaimer | Legal Notice
Copyright © 2001-2014 MetalTabs.com. All Rights Reserved.